  0
SECTION
  2
HEADER
  9
$ACADVER
  1
AC1018
  9
$ACADMAINTVER
 70
     0
  9
$DWGCODEPAGE
  3
ANSI_1252
  9
$INSBASE
 10
0.0
 20
0.0
 30
0.0
  9
$EXTMIN
 10
-50.0
 20
-76.79573590991498
 30
-0.0000000000002902
  9
$EXTMAX
 10
653.367885102846
 20
877.8197054980527
 30
0.0000000000002885
  9
$LIMMIN
 10
0.0
 20
0.0
  9
$LIMMAX
 10
420.0
 20
297.0
  9
$ORTHOMODE
 70
     1
  9
$REGENMODE
 70
     1
  9
$FILLMODE
 70
     1
  9
$QTEXTMODE
 70
     0
  9
$MIRRTEXT
 70
     1
  9
$LTSCALE
 40
0.3
  9
$ATTMODE
 70
     1
  9
$TEXTSIZE
 40
3.5
  9
$TRACEWID
 40
1.0
  9
$TEXTSTYLE
  7
STANDARD
  9
$CLAYER
  8
OBJEKT
  9
$CELTYPE
  6
BYLAYER
  9
$CECOLOR
 62
   256
  9
$CELTSCALE
 40
1.0
  9
$DISPSILH
 70
     0
  9
$DIMSCALE
 40
1.0
  9
$DIMASZ
 40
3.5
  9
$DIMEXO
 40
0.1
  9
$DIMDLI
 40
7.0
  9
$DIMRND
 40
0.0
  9
$DIMDLE
 40
0.0
  9
$DIMEXE
 40
1.8
  9
$DIMTP
 40
0.0
  9
$DIMTM
 40
0.0
  9
$DIMTXT
 40
3.5
  9
$DIMCEN
 40
1.5
  9
$DIMTSZ
 40
0.0
  9
$DIMTOL
 70
     0
  9
$DIMLIM
 70
     0
  9
$DIMTIH
 70
     0
  9
$DIMTOH
 70
     1
  9
$DIMSE1
 70
     0
  9
$DIMSE2
 70
     0
  9
$DIMTAD
 70
     0
  9
$DIMZIN
 70
     8
  9
$DIMBLK
  1

  9
$DIMASO
 70
     1
  9
$DIMSHO
 70
     1
  9
$DIMPOST
  1

  9
$DIMAPOST
  1

  9
$DIMALT
 70
     0
  9
$DIMALTD
 70
     2
  9
$DIMALTF
 40
25.4
  9
$DIMLFAC
 40
1.0
  9
$DIMTOFL
 70
     1
  9
$DIMTVP
 40
1.0
  9
$DIMTIX
 70
     0
  9
$DIMSOXD
 70
     0
  9
$DIMSAH
 70
     0
  9
$DIMBLK1
  1

  9
$DIMBLK2
  1

  9
$DIMSTYLE
  2
ISOCP-2000-1-1
  9
$DIMCLRD
 70
   256
  9
$DIMCLRE
 70
   256
  9
$DIMCLRT
 70
     6
  9
$DIMTFAC
 40
1.0
  9
$DIMGAP
 40
0.5
  9
$DIMJUST
 70
     0
  9
$DIMSD1
 70
     0
  9
$DIMSD2
 70
     0
  9
$DIMTOLJ
 70
     1
  9
$DIMTZIN
 70
     0
  9
$DIMALTZ
 70
     0
  9
$DIMALTTZ
 70
     0
  9
$DIMUPT
 70
     0
  9
$DIMDEC
 70
     2
  9
$DIMTDEC
 70
     2
  9
$DIMALTU
 70
     8
  9
$DIMALTTD
 70
     2
  9
$DIMTXSTY
  7
ISOCP
  9
$DIMAUNIT
 70
     0
  9
$DIMADEC
 70
     2
  9
$DIMALTRND
 40
0.0
  9
$DIMAZIN
 70
     2
  9
$DIMDSEP
 70
    44
  9
$DIMATFIT
 70
     3
  9
$DIMFRAC
 70
     0
  9
$DIMLDRBLK
  1

  9
$DIMLUNIT
 70
     2
  9
$DIMLWD
 70
    13
  9
$DIMLWE
 70
    13
  9
$DIMTMOVE
 70
     2
  9
$LUNITS
 70
     2
  9
$LUPREC
 70
     4
  9
$SKETCHINC
 40
1.0
  9
$FILLETRAD
 40
1.0
  9
$AUNITS
 70
     0
  9
$AUPREC
 70
     0
  9
$MENU
  1
acad
  9
$ELEVATION
 40
0.0
  9
$PELEVATION
 40
0.0
  9
$THICKNESS
 40
0.0
  9
$LIMCHECK
 70
     0
  9
$CHAMFERA
 40
3.0
  9
$CHAMFERB
 40
2.0
  9
$CHAMFERC
 40
20.0
  9
$CHAMFERD
 40
0.0
  9
$SKPOLY
 70
     0
  9
$TDCREATE
 40
2452557.551087188
  9
$TDUCREATE
 40
2452557.467753854
  9
$TDUPDATE
 40
2453847.495747048
  9
$TDUUPDATE
 40
2453847.412413716
  9
$TDINDWG
 40
0.3540690509
  9
$TDUSRTIMER
 40
0.3540688657
  9
$USRTIMER
 70
     1
  9
$ANGBASE
 50
0.0
  9
$ANGDIR
 70
     0
  9
$PDMODE
 70
     0
  9
$PDSIZE
 40
0.0
  9
$PLINEWID
 40
0.0
  9
$SPLFRAME
 70
     0
  9
$SPLINETYPE
 70
     6
  9
$SPLINESEGS
 70
     8
  9
$HANDSEED
  5
4CD5
  9
$SURFTAB1
 70
     6
  9
$SURFTAB2
 70
     6
  9
$SURFTYPE
 70
     6
  9
$SURFU
 70
     6
  9
$SURFV
 70
     6
  9
$UCSBASE
  2

  9
$UCSNAME
  2

  9
$UCSORG
 10
0.0
 20
0.0
 30
0.0
  9
$UCSXDIR
 10
1.0
 20
0.0
 30
0.0
  9
$UCSYDIR
 10
0.0
 20
1.0
 30
0.0
  9
$UCSORTHOREF
  2

  9
$UCSORTHOVIEW
 70
     0
  9
$UCSORGTOP
 10
0.0
 20
0.0
 30
0.0
  9
$UCSORGBOTTOM
 10
0.0
 20
0.0
 30
0.0
  9
$UCSORGLEFT
 10
0.0
 20
0.0
 30
0.0
  9
$UCSORGRIGHT
 10
0.0
 20
0.0
 30
0.0
  9
$UCSORGFRONT
 10
0.0
 20
0.0
 30
0.0
  9
$UCSORGBACK
 10
0.0
 20
0.0
 30
0.0
  9
$PUCSBASE
  2

  9
$PUCSNAME
  2

  9
$PUCSORG
 10
0.0
 20
0.0
 30
0.0
  9
$PUCSXDIR
 10
1.0
 20
0.0
 30
0.0
  9
$PUCSYDIR
 10
0.0
 20
1.0
 30
0.0
  9
$PUCSORTHOREF
  2

  9
$PUCSORTHOVIEW
 70
     0
  9
$PUCSORGTOP
 10
0.0
 20
0.0
 30
0.0
  9
$PUCSORGBOTTOM
 10
0.0
 20
0.0
 30
0.0
  9
$PUCSORGLEFT
 10
0.0
 20
0.0
 30
0.0
  9
$PUCSORGRIGHT
 10
0.0
 20
0.0
 30
0.0
  9
$PUCSORGFRONT
 10
0.0
 20
0.0
 30
0.0
  9
$PUCSORGBACK
 10
0.0
 20
0.0
 30
0.0
  9
$USERI1
 70
     0
  9
$USERI2
 70
     0
  9
$USERI3
 70
     0
  9
$USERI4
 70
     0
  9
$USERI5
 70
     0
  9
$USERR1
 40
0.0
  9
$USERR2
 40
0.0
  9
$USERR3
 40
0.0
  9
$USERR4
 40
0.0
  9
$USERR5
 40
0.0
  9
$WORLDVIEW
 70
     1
  9
$SHADEDGE
 70
     3
  9
$SHADEDIF
 70
    70
  9
$TILEMODE
 70
     1
  9
$MAXACTVP
 70
    48
  9
$PINSBASE
 10
0.0
 20
0.0
 30
0.0
  9
$PLIMCHECK
 70
     0
  9
$PEXTMIN
 10
3.354302467962611
 20
4.455883883873752
 30
0.0
  9
$PEXTMAX
 10
400.6112441386464
 20
283.5413909720504
 30
0.0
  9
$PLIMMIN
 10
-8.358117546955782
 20
-1.544025821772834
  9
$PLIMMAX
 10
411.6308656073409
 20
295.4242969321334
  9
$UNITMODE
 70
     0
  9
$VISRETAIN
 70
     1
  9
$PLINEGEN
 70
     0
  9
$PSLTSCALE
 70
     1
  9
$TREEDEPTH
 70
  3020
  9
$CMLSTYLE
  2
STANDARD
  9
$CMLJUST
 70
     0
  9
$CMLSCALE
 40
20.0
  9
$PROXYGRAPHICS
 70
     1
  9
$MEASUREMENT
 70
     1
  9
$CELWEIGHT
370
    -1
  9
$ENDCAPS
280
     0
  9
$JOINSTYLE
280
     0
  9
$LWDISPLAY
290
     0
  9
$INSUNITS
 70
     0
  9
$HYPERLINKBASE
  1

  9
$STYLESHEET
  1
MONOCHROME.CTB
  9
$XEDIT
290
     1
  9
$CEPSNTYPE
380
     0
  9
$PSTYLEMODE
290
     1
  9
$FINGERPRINTGUID
  2
{807DCE7E-07C7-11D5-AD80-00105AD93755}
  9
$VERSIONGUID
  2
{DEB048B0-DE82-4D91-AD79-597B5DFEF856}
  9
$EXTNAMES
290
     1
  9
$PSVPSCALE
 40
0.0
  9
$OLESTARTUP
290
     0
  9
$SORTENTS
280
    96
  9
$INDEXCTL
280
     0
  9
$HIDETEXT
280
     0
  9
$XCLIPFRAME
290
     0
  9
$HALOGAP
280
     0
  9
$OBSCOLOR
 70
   257
  9
$OBSLTYPE
280
     0
  9
$INTERSECTIONDISPLAY
280
     0
  9
$INTERSECTIONCOLOR
 70
   257
  9
$DIMASSOC
280
     1
  9
$PROJECTNAME
  1

  0
ENDSEC
  0
SECTION
  2
CLASSES
  0
CLASS
  1
DICTIONARYVAR
  2
AcDbDictionaryVar
  3
ObjectDBX Classes
 90
        0
 91
        2
280
     0
281
     0
  0
CLASS
  1
ACDBDICTIONARYWDFLT
  2
AcDbDictionaryWithDefault
  3
ObjectDBX Classes
 90
        0
 91
        1
280
     0
281
     0
  0
ENDSEC
  0
SECTION
  2
TABLES
  0
TABLE
  2
VPORT
  5
8
330
0
100
AcDbSymbolTable
 70
     2
  0
VPORT
  5
4CD4
330
8
100
AcDbSymbolTableRecord
100
AcDbViewportTableRecord
  2
*Active
 70
     0
 10
0.0
 20
0.0
 11
1.0
 21
1.0
 12
523.8979269119518
 22
810.0367712184761
 13
0.0
 23
0.0
 14
10.0
 24
10.0
 15
10.0
 25
10.0
 16
0.0
 26
0.0
 36
1.0
 17
0.0
 27
0.0
 37
0.0
 40
349.3515666637851
 41
1.574440052700922
 42
50.0
 43
0.0
 44
0.0
 50
0.0
 51
0.0
 71
     0
 72
   100
 73
     1
 74
     1
 75
     0
 76
     0
 77
     0
 78
     0
281
     0
 65
     1
110
0.0
120
0.0
130
0.0
111
1.0
121
0.0
131
0.0
112
0.0
122
1.0
132
0.0
 79
     0
146
0.0
  0
ENDTAB
  0
TABLE
  2
LTYPE
  5
5
330
0
100
AcDbSymbolTable
 70
     6
  0
LTYPE
  5
12
330
5
100
AcDbSymbolTableRecord
100
AcDbLinetypeTableRecord
  2
BYBLOCK
 70
     0
  3

 72
    65
 73
     0
 40
0.0
  0
LTYPE
  5
13
330
5
100
AcDbSymbolTableRecord
100
AcDbLinetypeTableRecord
  2
BYLAYER
 70
     0
  3

 72
    65
 73
     0
 40
0.0
  0
LTYPE
  5
14
330
5
100
AcDbSymbolTableRecord
100
AcDbLinetypeTableRecord
  2
CONTINUOUS
 70
     0
  3
Solid line
 72
    65
 73
     0
 40
0.0
  0
LTYPE
  5
26
330
5
100
AcDbSymbolTableRecord
100
AcDbLinetypeTableRecord
  2
MITTE
 70
     0
  3
Mitte ____ _ ____ _ ____ _ ____ _ ____ _ ____
 72
    65
 73
     4
 40
50.8
 49
31.75
 74
     0
 49
-6.349999999999998
 74
     0
 49
6.349999999999998
 74
     0
 49
-6.349999999999998
 74
     0
  0
LTYPE
  5
27
330
5
100
AcDbSymbolTableRecord
100
AcDbLinetypeTableRecord
  2
VERDECKT
 70
     0
  3
Verdeckt __ __ __ __ __ __ __ __ __ __ __ __ __
 72
    65
 73
     2
 40
9.524999999999996
 49
6.349999999999998
 74
     0
 49
-3.174999999999998
 74
     0
  0
LTYPE
  5
28
330
5
100
AcDbSymbolTableRecord
100
AcDbLinetypeTableRecord
  2
ACAD_ISO12W100
 70
     0
  3
ISO Strich, zwei Punkte __ . . __ . . __ . . __
 72
    65
 73
     6
 40
22.0
 49
12.0
 74
     0
 49
-3.0
 74
     0
 49
0.5
 74
     0
 49
-3.0
 74
     0
 49
0.5
 74
     0
 49
-3.0
 74
     0
  0
LTYPE
  5
1BFE
330
5
100
AcDbSymbolTableRecord
100
AcDbLinetypeTableRecord
  2
STRICHPUNKT
 70
     0
  3
__ . __ . __ . __ . __ . __ . __ . __ . __ . __
 72
    65
 73
     4
 40
1.0
 49
0.5
 74
     0
 49
-0.25
 74
     0
 49
0.0
 74
     0
 49
-0.25
 74
     0
  0
LTYPE
  5
1E27
330
5
100
AcDbSymbolTableRecord
100
AcDbLinetypeTableRecord
  2
MITTE2
 70
     0
  3
Mitte (.5x) ___ _ ___ _ ___ _ ___ _ ___ _ ___
 72
    65
 73
     4
 40
28.575
 49
19.05
 74
     0
 49
-3.174999999999998
 74
     0
 49
3.174999999999998
 74
     0
 49
-3.174999999999998
 74
     0
  0
ENDTAB
  0
TABLE
  2
LAYER
  5
2
330
0
100
AcDbSymbolTable
 70
    20
  0
LAYER
  5
E
330
2
100
AcDbSymbolTableRecord
100
AcDbLayerTableRecord
  2
0
 70
     0
 62
     7
  6
CONTINUOUS
370
    -3
390
1449
  0
LAYER
  5
23
330
2
100
AcDbSymbolTableRecord
100
AcDbLayerTableRecord
  2
OBJEKT
 70
     0
 62
     7
  6
CONTINUOUS
370
    50
390
1449
  0
LAYER
  5
2A
330
2
100
AcDbSymbolTableRecord
100
AcDbLayerTableRecord
  2
MITTELLINIE
 70
     0
 62
     1
  6
MITTE
370
    -3
390
1449
  0
LAYER
  5
2B
330
2
100
AcDbSymbolTableRecord
100
AcDbLayerTableRecord
  2
VERDECKT
 70
     0
 62
     3
  6
VERDECKT
370
    -3
390
1449
  0
LAYER
  5
2C
330
2
100
AcDbSymbolTableRecord
100
AcDbLayerTableRecord
  2
SCHRAFFUR
 70
     0
 62
     9
  6
CONTINUOUS
370
    -3
390
1449
  0
LAYER
  5
2E
330
2
100
AcDbSymbolTableRecord
100
AcDbLayerTableRecord
  2
GEGEBENHEIT
 70
     0
 62
     6
  6
ACAD_ISO12W100
370
    -3
390
1449
  0
LAYER
  5
FC
330
2
100
AcDbSymbolTableRecord
100
AcDbLayerTableRecord
  2
1
 70
     0
 62
     7
  6
CONTINUOUS
370
    50
390
1449
  0
LAYER
  5
100
330
2
100
AcDbSymbolTableRecord
100
AcDbLayerTableRecord
  2
5
 70
     0
 62
     4
  6
CONTINUOUS
370
    -3
390
1449
  0
LAYER
  5
101
330
2
100
AcDbSymbolTableRecord
100
AcDbLayerTableRecord
  2
4
 70
     0
 62
     2
  6
CONTINUOUS
370
    -3
390
1449
  0
LAYER
  5
13F5
330
2
100
AcDbSymbolTableRecord
100
AcDbLayerTableRecord
  2
DEFPOINTS
 70
     0
 62
     7
  6
CONTINUOUS
290
     0
370
    -3
390
1449
  0
LAYER
  5
15D3
330
2
100
AcDbSymbolTableRecord
100
AcDbLayerTableRecord
  2
WERKSKANTEN
 70
     0
 62
     7
  6
CONTINUOUS
370
    -3
390
1449
  0
LAYER
  5
1BFF
330
2
100
AcDbSymbolTableRecord
100
AcDbLayerTableRecord
  2
2
 70
     0
 62
     1
  6
STRICHPUNKT
370
    -3
390
1449
  0
LAYER
  5
1E2A
330
2
100
AcDbSymbolTableRecord
100
AcDbLayerTableRecord
  2
SCHRAFUR
 70
     0
 62
     9
  6
CONTINUOUS
370
    -3
390
1449
  0
LAYER
  5
1E2B
330
2
100
AcDbSymbolTableRecord
100
AcDbLayerTableRecord
  2
TEXTE
 70
     0
 62
     2
  6
CONTINUOUS
370
    -3
390
1449
  0
LAYER
  5
2318
330
2
100
AcDbSymbolTableRecord
100
AcDbLayerTableRecord
  2
4-TEXT
 70
     0
 62
     2
  6
CONTINUOUS
370
    13
390
1449
  0
LAYER
  5
2499
330
2
100
AcDbSymbolTableRecord
100
AcDbLayerTableRecord
  2
Ansichtsfenster
 70
     0
 62
     5
  6
CONTINUOUS
370
    -3
390
1449
  0
LAYER
  5
24A5
330
2
100
AcDbSymbolTableRecord
100
AcDbLayerTableRecord
  2
5-BEM
 70
     0
 62
     4
  6
CONTINUOUS
370
    30
390
1449
  0
LAYER
  5
2EB8
330
2
100
AcDbSymbolTableRecord
100
AcDbLayerTableRecord
  2
6_DÜNNEKÖRPERK
 70
     0
 62
     6
  6
CONTINUOUS
370
    -3
390
1449
  0
LAYER
  5
48B2
330
2
100
AcDbSymbolTableRecord
100
AcDbLayerTableRecord
  2
1_SYMMETRIE
 70
     0
 62
     1
  6
MITTE2
370
    -3
390
1449
  0
LAYER
  5
48B4
330
2
100
AcDbSymbolTableRecord
100
AcDbLayerTableRecord
  2
2_SCHRAFF
 70
     0
 62
     2
  6
CONTINUOUS
370
    -3
390
1449
  0
ENDTAB
  0
TABLE
  2
STYLE
  5
3
330
0
100
AcDbSymbolTable
 70
     3
  0
STYLE
  5
F
330
3
100
AcDbSymbolTableRecord
100
AcDbTextStyleTableRecord
  2
STANDARD
 70
     0
 40
0.0
 41
1.0
 50
0.0
 71
     0
 42
3.5
  3
isocp.shx
  4

  0
STYLE
  5
102
330
3
100
AcDbSymbolTableRecord
100
AcDbTextStyleTableRecord
  2
ROMANS
 70
     0
 40
0.0
 41
1.0
 50
0.0
 71
     0
 42
3.5
  3
romans
  4

  0
STYLE
  5
1128
330
3
100
AcDbSymbolTableRecord
100
AcDbTextStyleTableRecord
  2
ISOCP
 70
     0
 40
0.0
 41
1.0
 50
0.0
 71
     0
 42
3.5
  3
isocp.shx
  4

  0
ENDTAB
  0
TABLE
  2
VIEW
  5
6
330
0
100
AcDbSymbolTable
 70
     0
  0
ENDTAB
  0
TABLE
  2
UCS
  5
7
330
0
100
AcDbSymbolTable
 70
     0
  0
ENDTAB
  0
TABLE
  2
APPID
  5
9
330
0
100
AcDbSymbolTable
 70
     4
  0
APPID
  5
10
330
9
100
AcDbSymbolTableRecord
100
AcDbRegAppTableRecord
  2
ACAD
 70
     0
  0
APPID
  5
112B
330
9
100
AcDbSymbolTableRecord
100
AcDbRegAppTableRecord
  2
CONTENTTABDATA
 70
     0
  0
APPID
  5
112C
330
9
100
AcDbSymbolTableRecord
100
AcDbRegAppTableRecord
  2
CONTENTCURRENTTAB
 70
     0
  0
APPID
  5
13A0
330
9
100
AcDbSymbolTableRecord
100
AcDbRegAppTableRecord
  2
CONTENTBLOCKICON
 70
     0
  0
ENDTAB
  0
TABLE
  2
DIMSTYLE
  5
A
330
0
100
AcDbSymbolTable
 70
     2
100
AcDbDimStyleTable
 71
     2
340
24A6
340
1C00
  0
DIMSTYLE
105
1C00
330
A
100
AcDbSymbolTableRecord
100
AcDbDimStyleTableRecord
  2
STANDARD
 70
     0
340
F
  0
DIMSTYLE
105
24A6
330
A
100
AcDbSymbolTableRecord
100
AcDbDimStyleTableRecord
  2
ISOCP-2000-1-1
 70
     0
 41
3.5
 42
0.1
 43
7.0
 44
1.8
 73
     0
 78
     8
 79
     2
140
3.5
141
1.5
145
1.0
147
0.5
172
     1
176
   256
177
   256
178
     6
179
     2
271
     2
272
     2
273
     8
278
    44
279
     2
340
1128
371
    13
372
    13
  0
ENDTAB
  0
TABLE
  2
BLOCK_RECORD
  5
1
330
0
100
AcDbSymbolTable
 70
    12
  0
BLOCK_RECORD
  5
18
330
1
100
AcDbSymbolTableRecord
100
AcDbBlockTableRecord
  2
*MODEL_SPACE
340
144C
  0
BLOCK_RECORD
  5
23BE
330
1
100
AcDbSymbolTableRecord
100
AcDbBlockTableRecord
  2
*Paper_Space
340
23BF
  0
BLOCK_RECORD
  5
103
330
1
100
AcDbSymbolTableRecord
100
AcDbBlockTableRecord
  2
PROTO
340
0
310
280000002000000020000000010004000000000000020000000000000000000000000000000000000000000000008000008000000080800080000000800080008080000080808000C0C0C0000000FF0000FF000000FFFF00FF000000FF00FF00FFFF0000FFFFFF00FFFFFFFFFFFFFFFFFFFFFFFFFFFFFFFFFFFFFFFFFFFFFF
310
FFFFFFFFFFFFFFFFFFFFFFFFFFFFFFFFFFFFFFFFFFFFFFFFFFFFFFFFFFFFFFFFFFFFFFFFFFFFFFFFFFFFFFFFFFFFFFFFFFFFFFFFFFFFFFFFFFFFFFFFFFFFFFFFFFFFFFFFFFFFFFFFFFFFFFFFFFFFFFFFFFFFFFFFFFFFFFFFFFFFFFFFFFFFFFFFFFFFFFFFFFFFFFFFFFFFFFFFFFFFFFFFFFFFFFFFFFFFFFFFFFFFFFFFFFFFFF
310
FFFFFFFFFFFFFFFFFFFFFFFFFFFFFFFFFFFFFFFFFFFFFFFFFFFFFFFFFFFFFFFFFFFFFFFFFFFFFFFFFFFFFFFFFFFFFFFFFFFFFFFFFFFFFFFFFFFFFFFFFFFFFFFFFFFFFFFFFFFFFFFFFFFFFFFFFFFFFFFFFFFFFFFFFFFFFFFFFFFFFFFFFFFFFFFFFFFFFFFFFFFFFFFFFFFFFFFFFFFFFFFFFFFFFFFFFFFFFFFFFFFFFFFFFFFFFF
310
FFFFFFFFFFFFFFFFFFFFFFFFFFFFFFFFFFFFFFFFFFFFFFFFFFFFFFFFFFFFFFFFFFFFFFFFFFFFFFFFFFFFFFFFFFFFFFFFFFFFFFFFFFFFFFFFFFFFFFFFFFFFFFFFFFFFFFFFFFFFFFFFFFFFFFFFFFFFFFFFFFFFFFFFFFFFFFFFFFFFFFFFFFFFFFFFFFFFFFFFFFFFFFFFFFFFFFFFFFFFFFFFFFFFFFFFFFFFFFFFFFFFFFFFFFFFFF
310
FFFFFFFFFFFFFFFFFFFFFFFFFFFFFFFFFFFFFFFFFFFFFFFFFFFFFFFFFFFFFFFFFFFFFFFFFFFFFFFFFFFFFFFFFFFFFFFFFFFFFFFFFFFFFFFFFFFFFFFFFFFFFFFFFFFFFFFFFFFFFFFFFFFFFFFFFFFFFFFFFFFFFFFFFFFFFFFFFFFFFFFFFFFFFFFFFFFFFFFFFFFFFFFFFFFFFFFF
102
{BLKREFS
331
107
102
}
  0
BLOCK_RECORD
  5
1EC7
330
1
100
AcDbSymbolTableRecord
100
AcDbBlockTableRecord
  2
schriftfeld-31.01.02
340
0
102
{BLKREFS
331
244F
331
253E
331
261D
331
26F8
102
}
  0
BLOCK_RECORD
  5
2319
330
1
100
AcDbSymbolTableRecord
100
AcDbBlockTableRecord
  2
Toleranz1000
340
0
102
{BLKREFS
331
261C
331
273C
102
}
  0
BLOCK_RECORD
  5
232F
330
1
100
AcDbSymbolTableRecord
100
AcDbBlockTableRecord
  2
Datenblatt 13.02.02
340
0
102
{BLKREFS
331
25FF
102
}
  0
BLOCK_RECORD
  5
2588
330
1
100
AcDbSymbolTableRecord
100
AcDbBlockTableRecord
  2
*Paper_Space4
340
2589
  0
BLOCK_RECORD
  5
24A7
330
1
100
AcDbSymbolTableRecord
100
AcDbBlockTableRecord
  2
oberfläche_nach_1302
340
0
102
{BLKREFS
331
24AD
331
2585
102
}
1001
ACAD
1000
DesignCenter Data
1002
{
1070
     1
1070
     4
1002
}
  0
BLOCK_RECORD
  5
24AE
330
1
100
AcDbSymbolTableRecord
100
AcDbBlockTableRecord
  2
Allgemeintoleranzen1
340
0
102
{BLKREFS
331
24B4
331
2582
102
}
  0
BLOCK_RECORD
  5
24DA
330
1
100
AcDbSymbolTableRecord
100
AcDbBlockTableRecord
  2
A3ra
340
0
102
{BLKREFS
331
24E3
102
}
  0
BLOCK_RECORD
  5
258C
330
1
100
AcDbSymbolTableRecord
100
AcDbBlockTableRecord
  2
*Paper_Space8
340
258D
  0
BLOCK_RECORD
  5
23BA
330
1
100
AcDbSymbolTableRecord
100
AcDbBlockTableRecord
  2
*Paper_Space9
340
23BB
  0
BLOCK_RECORD
  5
28F8
330
1
100
AcDbSymbolTableRecord
100
AcDbBlockTableRecord
  2
Werkstückkanten
340
0
102
{BLKREFS
331
290E
331
2922
102
}
  0
BLOCK_RECORD
  5
45CD
330
1
100
AcDbSymbolTableRecord
100
AcDbBlockTableRecord
  2
Systemdeckel1
340
0
310
2800000020000000200000000100080000000000000400000000000000000000000000000000000000000000000080000080000000808000800000008000800080800000C0C0C000C0DCC000F0CAA6000020400000206000002080000020A0000020C0000020E00000400000004020000040400000406000004080000040A0
310
000040C0000040E00000600000006020000060400000606000006080000060A0000060C0000060E00000800000008020000080400000806000008080000080A0000080C0000080E00000A0000000A0200000A0400000A0600000A0800000A0A00000A0C00000A0E00000C0000000C0200000C0400000C0600000C0800000C0
310
A00000C0C00000C0E00000E0000000E0200000E0400000E0600000E0800000E0A00000E0C00000E0E00040000000400020004000400040006000400080004000A0004000C0004000E00040200000402020004020400040206000402080004020A0004020C0004020E000404000004040200040404000404060004040800040
310
40A0004040C0004040E00040600000406020004060400040606000406080004060A0004060C0004060E00040800000408020004080400040806000408080004080A0004080C0004080E00040A0000040A0200040A0400040A0600040A0800040A0A00040A0C00040A0E00040C0000040C0200040C0400040C0600040C08000
310
40C0A00040C0C00040C0E00040E0000040E0200040E0400040E0600040E0800040E0A00040E0C00040E0E00080000000800020008000400080006000800080008000A0008000C0008000E00080200000802020008020400080206000802080008020A0008020C0008020E00080400000804020008040400080406000804080
310
008040A0008040C0008040E00080600000806020008060400080606000806080008060A0008060C0008060E00080800000808020008080400080806000808080008080A0008080C0008080E00080A0000080A0200080A0400080A0600080A0800080A0A00080A0C00080A0E00080C0000080C0200080C0400080C0600080C0
310
800080C0A00080C0C00080C0E00080E0000080E0200080E0400080E0600080E0800080E0A00080E0C00080E0E000C0000000C0002000C0004000C0006000C0008000C000A000C000C000C000E000C0200000C0202000C0204000C0206000C0208000C020A000C020C000C020E000C0400000C0402000C0404000C0406000C0
310
408000C040A000C040C000C040E000C0600000C0602000C0604000C0606000C0608000C060A000C060C000C060E000C0800000C0802000C0804000C0806000C0808000C080A000C080C000C080E000C0A00000C0A02000C0A04000C0A06000C0A08000C0A0A000C0A0C000C0A0E000C0C00000C0C02000C0C04000C0C06000
310
C0C08000C0C0A000F0FBFF00A4A0A000808080000000FF0000FF000000FFFF00FF000000FF00FF00FFFF0000FFFFFF0000000000000000000000000000000000000000000000000000000000000000000000000000000000000000000000000000000000000000000000000000000000000000000000000000000000000000
310
00000000000000000000000000000000000000FFFFFFFFFFFFFFFFFFFF00000000000000000000000000000000000000000000FFFFFFFFFFFFFFFFFFFFFF070700000000000000000000000000000000000000FF000000000000000000FFFFFFFFFFFFFFFFFFFFFFFFFFFFFFFFFFFF00000000FF000000000000000000FF00
310
FF0000000000000000000000000000FF00000000FF000000000000000000FF00FF0000000000000000000000000000FF00000000FF000000000000000000FF00FF0000000000000000000000000000FF00000000FF000000000000000000FF00FF0000000000000000000000000000FF00000000FF000000000000000000FF
310
00FF0000000000000000000000000000FF00000000FF000000000000000000FF00FF0000000000000000000000000000FF00000000FF000000000000000000FF00FF0000000000000000000000000000FF00000000FF000000000000000000FF00FF0000000000000000000000000000FF00000000FF000000000000000000
310
FF00FF0000000000000000000000000000FF000000F9FFF9F9F9F9F9F9F9F9F9FFF9FFF9F9F9F9F9F9F9F9F9F9F9F9F9F9FFF9000000FF000000000000000000FF00FF0000000000000000000000000000FF00000000FF000000000000000000FF00FF0000000000000000000000000000FF00000000FF0000000000000000
310
00FF00FF0000000000000000000000000000FF00000000FF000000000000000000FF00FF0000000000000000000000000000FF00000000FF000000000000000000FF00FF0000000000000000000000000000FF00000000FF000000000000000000FF00FF0000000000000000000000000000FF00000000FF00000000000000
310
0000FF00FF0000000000000000000000000000FF00000000FF000000000000000000FF00FF0000000000000000000000000000FF00000000FF000000000000000000FF00FF0000000000000000000000000000FF00000000FF000000000000000000FF00FF0000000000000000000000000000FF00000000FF000000000000
310
000000FF07FFFFFFFFFFFFFFFFFFFFFFFFFFFFFFFF00000000FFFFFFFFFFFFFFFFFFFFFFFF0000000000000000000000000000000000000000FFFFFFFFFFFFFFFFFFFF000000000000000000000000000000000000000000000000000000000000000000000000000000000000000000000000000000000000000000000000
310
0000000000000000000000000000000000000000000000000000000000000000000000000000000000000000000000000000000000000000
102
{BLKREFS
331
4BAE
102
}
  0
ENDTAB
  0
ENDSEC
  0
SECTION
  2
BLOCKS
  0
BLOCK
  5
19
330
18
100
AcDbEntity
  8
0
100
AcDbBlockBegin
  2
*MODEL_SPACE
 70
     0
 10
0.0
 20
0.0
 30
0.0
  3
*MODEL_SPACE
  1

  0
ENDBLK
  5
1A
330
18
100
AcDbEntity
  8
0
100
AcDbBlockEnd
  0
BLOCK
  5
23C0
330
23BE
100
AcDbEntity
 67
     1
  8
0
100
AcDbBlockBegin
  2
*Paper_Space
 70
     0
 10
0.0
 20
0.0
 30
0.0
  3
*Paper_Space
  1

  0
ENDBLK
  5
23C1
330
23BE
100
AcDbEntity
 67
     1
  8
0
100
AcDbBlockEnd
  0
BLOCK
  5
104
330
103
100
AcDbEntity
  8
0
100
AcDbBlockBegin
  2
PROTO
 70
     0
 10
0.0
 20
0.0
 30
0.0
  3
PROTO
  1

  0
ENDBLK
  5
105
330
103
100
AcDbEntity
  8
0
100
AcDbBlockEnd
  0
BLOCK
  5
1F5E
330
1EC7
100
AcDbEntity
  8
0
100
AcDbBlockBegin
  2
schriftfeld-31.01.02
 70
     2
 10
0.0
 20
0.0
 30
0.0
  3
schriftfeld-31.01.02
  1

  0
ATTDEF
  5
1EC8
330
1EC7
100
AcDbEntity
  8
TEXTE
 62
     6
370
    35
100
AcDbText
 10
-42.57902579965854
 20
27.41847158242493
 30
0.0
 40
3.5
  1

  7
ISOCP
 72
     1
 11
-42.57902579965854
 21
27.41847158242493
 31
0.0
100
AcDbAttributeDefinition
  3
Benennung
  2
BENENNUNG
 70
     0
  0
ATTDEF
  5
1EC9
330
1EC7
100
AcDbEntity
  8
TEXTE
100
AcDbText
 10
-81.88793327393478
 20
16.52537108464139
 30
0.0
 40
3.5
  1

  7
ISOCP
100
AcDbAttributeDefinition
  3
A?
  2
A?
 70
     0
  0
ATTDEF
  5
1ECA
330
1EC7
100
AcDbEntity
  8
TEXTE
 62
     6
370
    35
100
AcDbText
 10
-44.16891796252076
 20
16.6131201199115
 30
0.0
 40
3.5
  1

  7
ISOCP
 72
     1
 11
-44.16891796252076
 21
16.6131201199115
 31
0.0
100
AcDbAttributeDefinition
  3
Zeichnungsnummer
  2
ZNR
 70
     0
  0
ATTDEF
  5
1ECB
330
1EC7
100
AcDbEntity
  8
TEXTE
100
AcDbText
 10
-85.71224364036311
 20
9.136808296300372
 30
0.0
 40
3.5
  1

 41
6.888667361090062
  7
ISOCP
 72
     5
 11
0.0
 21
9.136808296300367
 31
0.0
100
AcDbAttributeDefinition
  3
Klassifizierungsnr.
  2
KL.NR.
 70
     0
  0
TEXT
  5
1ECC
330
1EC7
100
AcDbEntity
  8
TEXTE
100
AcDbText
 10
-140.6
 20
18.0000000000001
 30
0.0
 40
2.5
  1
CAD
  7
ISOCP
100
AcDbText
  0
ATTDEF
  5
1ECD
330
1EC7
100
AcDbEntity
  8
TEXTE
100
AcDbText
 10
-130.0425163509875
 20
18.06867633133571
 30
0.0
 40
2.5
  1

  7
ISOCP
100
AcDbAttributeDefinition
  3
CAD Datum
  2
CADDAT
 70
     0
  0
ATTDEF
  5
1ECE
330
1EC7
100
AcDbEntity
  8
TEXTE
100
AcDbText
 10
-114.491998736572
 20
18.06867633133571
 30
0.0
 40
2.5
  1

  7
ISOCP
100
AcDbAttributeDefinition
  3
Bearb. Name
  2
BEARBNAME
 70
     0
  0
TEXT
  5
1ECF
330
1EC7
100
AcDbEntity
  8
TEXTE
100
AcDbText
 10
-140.6
 20
30.75000000000005
 30
0.0
 40
2.5
  1
Bearb.
  7
ISOCP
100
AcDbText
  0
ATTDEF
  5
1ED0
330
1EC7
100
AcDbEntity
  8
TEXTE
100
AcDbText
 10
-130.0425163509874
 20
30.81867633133571
 30
0.0
 40
2.5
  1

  7
ISOCP
100
AcDbAttributeDefinition
  3
Bearb. Datum
  2
BEARBDAT
 70
     0
  0
ATTDEF
  5
1ED1
330
1EC7
100
AcDbEntity
  8
TEXTE
100
AcDbText
 10
-114.491998736572
 20
30.81867633133571
 30
0.0
 40
2.5
  1

  7
ISOCP
100
AcDbAttributeDefinition
  3
Bearb. Name
  2
BEARBNAME
 70
     0
  0
TEXT
  5
1ED2
330
1EC7
100
AcDbEntity
  8
TEXTE
100
AcDbText
 10
-140.6
 20
26.5000000000001
 30
0.0
 40
2.5
  1
Gepr.
  7
ISOCP
100
AcDbText
  0
ATTDEF
  5
1ED3
330
1EC7
100
AcDbEntity
  8
TEXTE
100
AcDbText
 10
-130.0425163509874
 20
26.56867633133571
 30
0.0
 40
2.5
  1

  7
ISOCP
100
AcDbAttributeDefinition
  3
Geprüftes Datum
  2
GEPR-DAT
 70
     0
  0
ATTDEF
  5
1ED4
330
1EC7
100
AcDbEntity
  8
TEXTE
100
AcDbText
 10
-114.491998736572
 20
26.56867633133571
 30
0.0
 40
2.5
  1

  7
ISOCP
100
AcDbAttributeDefinition
  3
Geprüft Name
  2
GEPÜNAME
 70
     0
  0
TEXT
  5
1ED5
330
1EC7
100
AcDbEntity
  8
TEXTE
100
AcDbText
 10
-140.6
 20
22.25000000000004
 30
0.0
 40
2.5
  1
Norm
  7
ISOCP
100
AcDbText
  0
ATTDEF
  5
1ED6
330
1EC7
100
AcDbEntity
  8
TEXTE
100
AcDbText
 10
-130.0425163509875
 20
22.31867633133571
 30
0.0
 40
2.5
  1

  7
ISOCP
100
AcDbAttributeDefinition
  3
NORM Datum
  2
NORMBDAT
 70
     0
  0
ATTDEF
  5
1ED7
330
1EC7
100
AcDbEntity
  8
TEXTE
100
AcDbText
 10
-114.491998736572
 20
22.31867633133571
 30
0.0
 40
2.5
  1

  7
ISOCP
100
AcDbAttributeDefinition
  3
Bearb. Name
  2
BEARBNAME
 70
     0
  0
ATTDEF
  5
1ED8
330
1EC7
100
AcDbEntity
  8
TEXTE
100
AcDbText
 10
-106.4604474064139
 20
64.81867633133567
 30
0.0
 40
2.5
  1

  7
ISOCP
 72
     1
 11
-106.4604474064139
 21
64.81867633133567
 31
0.0
100
AcDbAttributeDefinition
  3
Maßstab1
  2
MAßSTAB1
 70
     0
  0
ATTDEF
  5
1ED9
330
1EC7
100
AcDbEntity
  8
TEXTE
100
AcDbText
 10
-106.1200117540381
 20
60.56867633133567
 30
0.0
 40
2.5
  1

  7
ISOCP
 72
     1
 11
-106.1200117540381
 21
60.56867633133567
 31
0.0
100
AcDbAttributeDefinition
  3
Maßstab2
  2
MAßSTAB2
 70
     0
  0
ATTDEF
  5
1EDA
330
1EC7
100
AcDbEntity
  8
TEXTE
100
AcDbText
 10
-106.1200117540381
 20
56.31867633133566
 30
0.0
 40
2.5
  1

  7
ISOCP
 72
     1
 11
-106.1200117540381
 21
56.31867633133566
 31
0.0
100
AcDbAttributeDefinition
  3
maßstab3
  2
MAßSTAB3
 70
     0
  0
ATTDEF
  5
1EDB
330
1EC7
100
AcDbEntity
  8
TEXTE
100
AcDbText
 10
-130.0425163509874
 20
1.068676331335709
 30
0.0
 40
2.5
  1

  7
ISOCP
100
AcDbAttributeDefinition
  3
URSPRUNG
  2
URSPRUNG
 70
     0
  0
ATTDEF
  5
1EDC
330
1EC7
100
AcDbEntity
  8
TEXTE
100
AcDbText
 10
-85.84251635098741
 20
1.068676331335693
 30
0.0
 40
2.5
  1

  7
ISOCP
100
AcDbAttributeDefinition
  3
Esetztfuer
  2
ERSETZTFÜR
 70
     0
  0
ATTDEF
  5
1EDD
330
1EC7
100
AcDbEntity
  8
TEXTE
100
AcDbText
 10
-37.14251635098742
 20
1.068676331335679
 30
0.0
 40
2.5
  1

  7
ISOCP
100
AcDbAttributeDefinition
  3
Erstelltfür
  2
ERSTELLTFÜR
 70
     0
  0
TEXT
  5
1EDE
330
1EC7
100
AcDbEntity
  8
TEXTE
100
AcDbText
 10
-186.2
 20
1.000000000000055
 30
0.0
 40
2.5
  1
Zust.
  7
ISOCP
100
AcDbText
  0
TEXT
  5
1EDF
330
1EC7
100
AcDbEntity
  8
TEXTE
100
AcDbText
 10
-177.9345499795853
 20
1.000000000000055
 30
0.0
 40
2.5
  1
Änd.
  7
ISOCP
100
AcDbText
  0
TEXT
  5
1EE0
330
1EC7
100
AcDbEntity
  8
TEXTE
100
AcDbText
 10
-164.900279456747
 20
0.909003677139907
 30
0.0
 40
2.5
  1
Datum
  7
ISOCP
100
AcDbText
  0
TEXT
  5
1EE1
330
1EC7
100
AcDbEntity
  8
TEXTE
100
AcDbText
 10
-152.0797376658415
 20
0.909003677139907
 30
0.0
 40
2.5
  1
Name
  7
ISOCP
100
AcDbText
  0
ATTDEF
  5
1EE2
330
1EC7
100
AcDbEntity
  8
TEXTE
100
AcDbText
 10
-186.0425163509874
 20
5.318676331335709
 30
0.0
 40
2.5
  1

  7
ISOCP
100
AcDbAttributeDefinition
  3
Zustand
  2
ZUST.
 70
     0
  0
ATTDEF
  5
1EE3
330
1EC7
100
AcDbEntity
  8
TEXTE
100
AcDbText
 10
-177.8982217996796
 20
5.318676331335709
 30
0.0
 40
2.5
  1

  7
ISOCP
100
AcDbAttributeDefinition
  3
Änderung
  2
ÄND.
 70
     0
  0
ATTDEF
  5
1EE4
330
1EC7
100
AcDbEntity
  8
TEXTE
100
AcDbText
 10
-164.7427958077344
 20
5.227680008475558
 30
0.0
 40
2.5
  1

  7
ISOCP
 72
     5
 11
-158.8677958077344
 21
5.227680008475558
 31
0.0
100
AcDbAttributeDefinition
  3
Bearb. Datum
  2
DAT
 70
     0
  0
ATTDEF
  5
1EE5
330
1EC7
100
AcDbEntity
  8
TEXTE
100
AcDbText
 10
-152.1611017383567
 20
5.227680008475558
 30
0.0
 40
2.5
  1

  7
ISOCP
100
AcDbAttributeDefinition
  3
Bearb. NAME
  2
NAME
 70
     0
  0
ATTDEF
  5
1EE6
330
1EC7
100
AcDbEntity
  8
TEXTE
100
AcDbText
 10
-186.0425163509874
 20
9.568676331335707
 30
0.0
 40
2.5
  1

  7
ISOCP
100
AcDbAttributeDefinition
  3
Zustand
  2
ZUST.
 70
     0
  0
ATTDEF
  5
1EE7
330
1EC7
100
AcDbEntity
  8
TEXTE
100
AcDbText
 10
-177.8982217996796
 20
9.568676331335707
 30
0.0
 40
2.5
  1

  7
ISOCP
100
AcDbAttributeDefinition
  3
Änderung
  2
ÄND.
 70
     0
  0
ATTDEF
  5
1EE8
330
1EC7
100
AcDbEntity
  8
TEXTE
100
AcDbText
 10
-164.7427958077344
 20
9.477680008475543
 30
0.0
 40
2.5
  1

  7
ISOCP
 72
     5
 11
-158.8677958077344
 21
9.477680008475543
 31
0.0
100
AcDbAttributeDefinition
  3
Bearb. Datum
  2
DAT
 70
     0
  0
ATTDEF
  5
1EE9
330
1EC7
100
AcDbEntity
  8
TEXTE
100
AcDbText
 10
-152.1611017383567
 20
9.477680008475561
 30
0.0
 40
2.5
  1

  7
ISOCP
100
AcDbAttributeDefinition
  3
Bearb. NAME
  2
NAME
 70
     0
  0
ATTDEF
  5
1EEA
330
1EC7
100
AcDbEntity
  8
TEXTE
100
AcDbText
 10
-186.0425163509874
 20
13.81867633133571
 30
0.0
 40
2.5
  1

  7
ISOCP
100
AcDbAttributeDefinition
  3
Zustand
  2
ZUST.
 70
     0
  0
ATTDEF
  5
1EEB
330
1EC7
100
AcDbEntity
  8
TEXTE
100
AcDbText
 10
-177.8982217996796
 20
13.81867633133571
 30
0.0
 40
2.5
  1

  7
ISOCP
100
AcDbAttributeDefinition
  3
Änderung
  2
ÄND.
 70
     0
  0
ATTDEF
  5
1EEC
330
1EC7
100
AcDbEntity
  8
TEXTE
100
AcDbText
 10
-164.7427958077344
 20
13.72768000847554
 30
0.0
 40
2.5
  1

  7
ISOCP
 72
     5
 11
-158.8677958077344
 21
13.72768000847554
 31
0.0
100
AcDbAttributeDefinition
  3
Bearb. Datum
  2
DAT
 70
     0
  0
ATTDEF
  5
1EED
330
1EC7
100
AcDbEntity
  8
TEXTE
100
AcDbText
 10
-152.1611017383567
 20
13.72768000847556
 30
0.0
 40
2.5
  1

  7
ISOCP
100
AcDbAttributeDefinition
  3
Bearb. NAME
  2
NAME
 70
     0
  0
ATTDEF
  5
1EEE
330
1EC7
100
AcDbEntity
  8
TEXTE
100
AcDbText
 10
-186.0425163509874
 20
18.06867633133571
 30
0.0
 40
2.5
  1

  7
ISOCP
100
AcDbAttributeDefinition
  3
Zustand
  2
ZUST.
 70
     0
  0
ATTDEF
  5
1EEF
330
1EC7
100
AcDbEntity
  8
TEXTE
100
AcDbText
 10
-177.8982217996796
 20
18.06867633133571
 30
0.0
 40
2.5
  1

  7
ISOCP
100
AcDbAttributeDefinition
  3
Änderung
  2
ÄND.
 70
     0
  0
ATTDEF
  5
1EF0
330
1EC7
100
AcDbEntity
  8
TEXTE
100
AcDbText
 10
-164.7427958077344
 20
17.97768000847554
 30
0.0
 40
2.5
  1

  7
ISOCP
 72
     5
 11
-158.8677958077344
 21
17.97768000847554
 31
0.0
100
AcDbAttributeDefinition
  3
Bearb. Datum
  2
DAT
 70
     0
  0
ATTDEF
  5
1EF1
330
1EC7
100
AcDbEntity
  8
TEXTE
100
AcDbText
 10
-152.1611017383567
 20
17.97768000847556
 30
0.0
 40
2.5
  1

  7
ISOCP
100
AcDbAttributeDefinition
  3
Bearb. NAME
  2
NAME
 70
     0
  0
ATTDEF
  5
1EF2
330
1EC7
100
AcDbEntity
  8
TEXTE
100
AcDbText
 10
-186.0425163509874
 20
22.31867633133571
 30
0.0
 40
2.5
  1

  7
ISOCP
100
AcDbAttributeDefinition
  3
Zustand
  2
ZUST.
 70
     0
  0
ATTDEF
  5
1EF3
330
1EC7
100
AcDbEntity
  8
TEXTE
100
AcDbText
 10
-177.8982217996796
 20
22.31867633133571
 30
0.0
 40
2.5
  1

  7
ISOCP
100
AcDbAttributeDefinition
  3
Änderung
  2
ÄND.
 70
     0
  0
ATTDEF
  5
1EF4
330
1EC7
100
AcDbEntity
  8
TEXTE
100
AcDbText
 10
-164.7427958077344
 20
22.22768000847555
 30
0.0
 40
2.5
  1

  7
ISOCP
 72
     5
 11
-158.8677958077344
 21
22.22768000847555
 31
0.0
100
AcDbAttributeDefinition
  3
Bearb. Datum
  2
DAT
 70
     0
  0
ATTDEF
  5
1EF5
330
1EC7
100
AcDbEntity
  8
TEXTE
100
AcDbText
 10
-152.1611017383567
 20
22.22768000847556
 30
0.0
 40
2.5
  1

  7
ISOCP
100
AcDbAttributeDefinition
  3
Bearb. NAME
  2
NAME
 70
     0
  0
ATTDEF
  5
1EF6
330
1EC7
100
AcDbEntity
  8
TEXTE
100
AcDbText
 10
-186.0425163509874
 20
26.56867633133571
 30
0.0
 40
2.5
  1

  7
ISOCP
100
AcDbAttributeDefinition
  3
Zustand
  2
ZUST.
 70
     0
  0
ATTDEF
  5
1EF7
330
1EC7
100
AcDbEntity
  8
TEXTE
100
AcDbText
 10
-177.8982217996796
 20
26.56867633133571
 30
0.0
 40
2.5
  1

  7
ISOCP
100
AcDbAttributeDefinition
  3
Änderung
  2
ÄND.
 70
     0
  0
ATTDEF
  5
1EF8
330
1EC7
100
AcDbEntity
  8
TEXTE
100
AcDbText
 10
-164.7427958077344
 20
26.47768000847555
 30
0.0
 40
2.5
  1

  7
ISOCP
 72
     5
 11
-158.8677958077344
 21
26.47768000847555
 31
0.0
100
AcDbAttributeDefinition
  3
Bearb. Datum
  2
DAT
 70
     0
  0
ATTDEF
  5
1EF9
330
1EC7
100
AcDbEntity
  8
TEXTE
100
AcDbText
 10
-152.1611017383567
 20
26.47768000847556
 30
0.0
 40
2.5
  1

  7
ISOCP
100
AcDbAttributeDefinition
  3
Bearb. NAME
  2
NAME
 70
     0
  0
ATTDEF
  5
1EFA
330
1EC7
100
AcDbEntity
  8
TEXTE
100
AcDbText
 10
-186.0425163509874
 20
30.81867633133571
 30
0.0
 40
2.5
  1

  7
ISOCP
100
AcDbAttributeDefinition
  3
Zustand
  2
ZUST.
 70
     0
  0
ATTDEF
  5
1EFB
330
1EC7
100
AcDbEntity
  8
TEXTE
100
AcDbText
 10
-177.8982217996796
 20
30.81867633133571
 30
0.0
 40
2.5
  1

  7
ISOCP
100
AcDbAttributeDefinition
  3
Änderung
  2
ÄND.
 70
     0
  0
ATTDEF
  5
1EFC
330
1EC7
100
AcDbEntity
  8
TEXTE
100
AcDbText
 10
-164.7427958077344
 20
30.72768000847555
 30
0.0
 40
2.5
  1

  7
ISOCP
 72
     5
 11
-158.8677958077344
 21
30.72768000847555
 31
0.0
100
AcDbAttributeDefinition
  3
Bearb. Datum
  2
DAT
 70
     0
  0
ATTDEF
  5
1EFD
330
1EC7
100
AcDbEntity
  8
TEXTE
100
AcDbText
 10
-152.1611017383567
 20
30.72768000847556
 30
0.0
 40
2.5
  1

  7
ISOCP
100
AcDbAttributeDefinition
  3
Bearb. NAME
  2
NAME
 70
     0
  0
ATTDEF
  5
1EFE
330
1EC7
100
AcDbEntity
  8
TEXTE
100
AcDbText
 10
-186.0425163509874
 20
35.06867633133571
 30
0.0
 40
2.5
  1

  7
ISOCP
100
AcDbAttributeDefinition
  3
Zustand
  2
ZUST.
 70
     0
  0
ATTDEF
  5
1EFF
330
1EC7
100
AcDbEntity
  8
TEXTE
100
AcDbText
 10
-177.8982217996796
 20
35.06867633133571
 30
0.0
 40
2.5
  1

  7
ISOCP
100
AcDbAttributeDefinition
  3
Änderung
  2
ÄND.
 70
     0
  0
ATTDEF
  5
1F00
330
1EC7
100
AcDbEntity
  8
TEXTE
100
AcDbText
 10
-164.7427958077344
 20
34.97768000847556
 30
0.0
 40
2.5
  1

  7
ISOCP
 72
     5
 11
-158.8677958077344
 21
34.97768000847556
 31
0.0
100
AcDbAttributeDefinition
  3
Bearb. Datum
  2
DAT
 70
     0
  0
ATTDEF
  5
1F01
330
1EC7
100
AcDbEntity
  8
TEXTE
100
AcDbText
 10
-152.1611017383567
 20
34.97768000847556
 30
0.0
 40
2.5
  1

  7
ISOCP
100
AcDbAttributeDefinition
  3
Bearb. NAME
  2
NAME
 70
     0
  0
ATTDEF
  5
1F02
330
1EC7
100
AcDbEntity
  8
TEXTE
100
AcDbText
 10
-186.0425163509874
 20
39.31867633133571
 30
0.0
 40
2.5
  1

  7
ISOCP
100
AcDbAttributeDefinition
  3
Zustand
  2
ZUST.
 70
     0
  0
ATTDEF
  5
1F03
330
1EC7
100
AcDbEntity
  8
TEXTE
100
AcDbText
 10
-177.8982217996796
 20
39.31867633133571
 30
0.0
 40
2.5
  1

  7
ISOCP
100
AcDbAttributeDefinition
  3
Änderung
  2
ÄND.
 70
     0
  0
ATTDEF
  5
1F04
330
1EC7
100
AcDbEntity
  8
TEXTE
100
AcDbText
 10
-164.7427958077344
 20
39.22768000847554
 30
0.0
 40
2.5
  1

  7
ISOCP
 72
     5
 11
-158.8677958077344
 21
39.22768000847554
 31
0.0
100
AcDbAttributeDefinition
  3
Bearb. Datum
  2
DAT
 70
     0
  0
ATTDEF
  5
1F05
330
1EC7
100
AcDbEntity
  8
TEXTE
100
AcDbText
 10
-152.1611017383567
 20
39.22768000847556
 30
0.0
 40
2.5
  1

  7
ISOCP
100
AcDbAttributeDefinition
  3
Bearb. NAME
  2
NAME
 70
     0
  0
ATTDEF
  5
1F06
330
1EC7
100
AcDbEntity
  8
TEXTE
100
AcDbText
 10
-186.0425163509874
 20
43.5686763313357
 30
0.0
 40
2.5
  1

  7
ISOCP
100
AcDbAttributeDefinition
  3
Zustand
  2
ZUST.
 70
     0
  0
ATTDEF
  5
1F07
330
1EC7
100
AcDbEntity
  8
TEXTE
100
AcDbText
 10
-177.8982217996796
 20
43.5686763313357
 30
0.0
 40
2.5
  1

  7
ISOCP
100
AcDbAttributeDefinition
  3
Änderung
  2
ÄND.
 70
     0
  0
ATTDEF
  5
1F08
330
1EC7
100
AcDbEntity
  8
TEXTE
100
AcDbText
 10
-164.7427958077344
 20
43.47768000847555
 30
0.0
 40
2.5
  1

  7
ISOCP
 72
     5
 11
-158.8677958077344
 21
43.47768000847555
 31
0.0
100
AcDbAttributeDefinition
  3
Bearb. Datum
  2
DAT
 70
     0
  0
ATTDEF
  5
1F09
330
1EC7
100
AcDbEntity
  8
TEXTE
100
AcDbText
 10
-152.1611017383567
 20
43.47768000847556
 30
0.0
 40
2.5
  1

  7
ISOCP
100
AcDbAttributeDefinition
  3
Bearb. NAME
  2
NAME
 70
     0
  0
ATTDEF
  5
1F0A
330
1EC7
100
AcDbEntity
  8
TEXTE
100
AcDbText
 10
-186.0425163509874
 20
47.81867633133571
 30
0.0
 40
2.5
  1

  7
ISOCP
100
AcDbAttributeDefinition
  3
Zustand
  2
ZUST.
 70
     0
  0
ATTDEF
  5
1F0B
330
1EC7
100
AcDbEntity
  8
TEXTE
100
AcDbText
 10
-177.8982217996796
 20
47.81867633133571
 30
0.0
 40
2.5
  1

  7
ISOCP
100
AcDbAttributeDefinition
  3
Änderung
  2
ÄND.
 70
     0
  0
ATTDEF
  5
1F0C
330
1EC7
100
AcDbEntity
  8
TEXTE
100
AcDbText
 10
-164.7427958077344
 20
47.72768000847555
 30
0.0
 40
2.5
  1

  7
ISOCP
 72
     5
 11
-158.8677958077344
 21
47.72768000847555
 31
0.0
100
AcDbAttributeDefinition
  3
Bearb. Datum
  2
DAT
 70
     0
  0
ATTDEF
  5
1F0D
330
1EC7
100
AcDbEntity
  8
TEXTE
100
AcDbText
 10
-152.1611017383567
 20
47.72768000847555
 30
0.0
 40
2.5
  1

  7
ISOCP
100
AcDbAttributeDefinition
  3
Bearb. NAME
  2
NAME
 70
     0
  0
ATTDEF
  5
1F0E
330
1EC7
100
AcDbEntity
  8
TEXTE
100
AcDbText
 10
-186.0425163509874
 20
52.06867633133565
 30
0.0
 40
2.5
  1

  7
ISOCP
100
AcDbAttributeDefinition
  3
Zustand
  2
ZUST.
 70
     0
  0
ATTDEF
  5
1F0F
330
1EC7
100
AcDbEntity
  8
TEXTE
100
AcDbText
 10
-177.8982217996796
 20
52.06867633133565
 30
0.0
 40
2.5
  1

  7
ISOCP
100
AcDbAttributeDefinition
  3
Änderung
  2
ÄND.
 70
     0
  0
ATTDEF
  5
1F10
330
1EC7
100
AcDbEntity
  8
TEXTE
100
AcDbText
 10
-164.7427958077344
 20
51.97768000847554
 30
0.0
 40
2.5
  1

  7
ISOCP
 72
     5
 11
-158.8677958077344
 21
51.97768000847554
 31
0.0
100
AcDbAttributeDefinition
  3
Bearb. Datum
  2
DAT
 70
     0
  0
ATTDEF
  5
1F11
330
1EC7
100
AcDbEntity
  8
TEXTE
100
AcDbText
 10
-152.1611017383567
 20
51.97768000847553
 30
0.0
 40
2.5
  1

  7
ISOCP
100
AcDbAttributeDefinition
  3
Bearb. NAME
  2
NAME
 70
     0
  0
LINE
  5
1F12
330
1EC7
100
AcDbEntity
  8
1
100
AcDbLine
 10
-97.39999999999998
 20
55.25
 30
0.0
 11
0.0
 21
55.25
 31
0.0
  0
LINE
  5
1F13
330
1EC7
100
AcDbEntity
  8
1
100
AcDbLine
 10
0.0
 20
72.25
 30
0.0
 11
-187.2
 21
72.25
 31
0.0
  0
LINE
  5
1F14
330
1EC7
100
AcDbEntity
  8
1
100
AcDbLine
 10
-141.6
 20
38.25
 30
0.0
 11
0.0
 21
38.25
 31
0.0
  0
LINE
  5
1F15
330
1EC7
100
AcDbEntity
  8
1
100
AcDbLine
 10
-97.39999999999998
 20
23.37500000000004
 30
0.0
 11
0.0
 21
23.37500000000004
 31
0.0
  0
LINE
  5
1F16
330
1EC7
100
AcDbEntity
  8
1
100
AcDbLine
 10
-141.6
 20
4.250000000000041
 30
0.0
 11
0.0
 21
4.25
 31
0.0
  0
LINE
  5
1F17
330
1EC7
100
AcDbEntity
  8
TEXTE
100
AcDbLine
 10
-187.2
 20
0.0000000000000568
 30
0.0
 11
0.0
 21
0.0
 31
0.0
  0
LINE
  5
1F18
330
1EC7
100
AcDbEntity
  8
4
100
AcDbLine
 10
-115.5999999999999
 20
55.25
 30
0.0
 11
-115.5999999999999
 21
72.25
 31
0.0
  0
LINE
  5
1F19
330
1EC7
100
AcDbEntity
  8
1
100
AcDbLine
 10
-97.39999999999998
 20
38.25
 30
0.0
 11
-97.39999999999998
 21
72.25
 31
0.0
  0
LINE
  5
1F1A
330
1EC7
100
AcDbEntity
  8
1
100
AcDbLine
 10
-187.2
 20
72.25
 30
0.0
 11
-187.2
 21
55.25
 31
0.0
  0
LINE
  5
1F1B
330
1EC7
100
AcDbEntity
  8
1
100
AcDbLine
 10
-187.2
 20
55.25
 30
0.0
 11
-187.2
 21
72.25
 31
0.0
  0
LINE
  5
1F1C
330
1EC7
100
AcDbEntity
  8
1
100
AcDbLine
 10
-141.6
 20
38.25
 30
0.0
 11
-141.6
 21
72.25
 31
0.0
  0
LINE
  5
1F1D
330
1EC7
100
AcDbEntity
  8
1
100
AcDbLine
 10
-187.2
 20
55.25
 30
0.0
 11
-97.39999999999998
 21
55.25
 31
0.0
  0
LINE
  5
1F1E
330
1EC7
100
AcDbEntity
  8
1
100
AcDbLine
 10
-187.2
 20
55.25
 30
0.0
 11
-97.39999999999998
 21
55.25
 31
0.0
  0
LINE
  5
1F1F
330
1EC7
100
AcDbEntity
  8
4
100
AcDbLine
 10
-141.6
 20
42.50000000000003
 30
0.0
 11
-187.2
 21
42.50000000000003
 31
0.0
  0
LINE
  5
1F20
330
1EC7
100
AcDbEntity
  8
4
100
AcDbLine
 10
-141.6
 20
51.00000000000004
 30
0.0
 11
-187.2
 21
51.00000000000004
 31
0.0
  0
LINE
  5
1F21
330
1EC7
100
AcDbEntity
  8
4
100
AcDbLine
 10
-141.6
 20
46.75000000000003
 30
0.0
 11
-187.2
 21
46.75000000000003
 31
0.0
  0
LINE
  5
1F22
330
1EC7
100
AcDbEntity
  8
4
100
AcDbLine
 10
-141.6
 20
38.25000000000004
 30
0.0
 11
-187.2
 21
38.25000000000004
 31
0.0
  0
LINE
  5
1F23
330
1EC7
100
AcDbEntity
  8
4
100
AcDbLine
 10
-141.6
 20
34.00000000000004
 30
0.0
 11
-187.2
 21
34.00000000000004
 31
0.0
  0
LINE
  5
1F24
330
1EC7
100
AcDbEntity
  8
4
100
AcDbLine
 10
-141.6
 20
29.75000000000004
 30
0.0
 11
-187.2
 21
29.75000000000004
 31
0.0
  0
LINE
  5
1F25
330
1EC7
100
AcDbEntity
  8
4
100
AcDbLine
 10
-141.6
 20
25.50000000000004
 30
0.0
 11
-187.2
 21
25.50000000000004
 31
0.0
  0
LINE
  5
1F26
330
1EC7
100
AcDbEntity
  8
4
100
AcDbLine
 10
-141.6
 20
17.00000000000004
 30
0.0
 11
-187.2
 21
17.00000000000004
 31
0.0
  0
LINE
  5
1F27
330
1EC7
100
AcDbEntity
  8
4
100
AcDbLine
 10
-141.6
 20
8.500000000000042
 30
0.0
 11
-187.2
 21
8.500000000000042
 31
0.0
  0
LINE
  5
1F28
330
1EC7
100
AcDbEntity
  8
TEXTE
100
AcDbLine
 10
-141.6
 20
21.25000000000004
 30
0.0
 11
-187.2
 21
21.25000000000004
 31
0.0
  0
LINE
  5
1F29
330
1EC7
100
AcDbEntity
  8
TEXTE
100
AcDbLine
 10
-141.6
 20
4.250000000000041
 30
0.0
 11
-187.2
 21
4.250000000000041
 31
0.0
  0
LINE
  5
1F2A
330
1EC7
100
AcDbEntity
  8
TEXTE
100
AcDbLine
 10
-141.6
 20
12.75000000000004
 30
0.0
 11
-187.2
 21
12.75000000000004
 31
0.0
  0
LINE
  5
1F2B
330
1EC7
100
AcDbEntity
  8
1
100
AcDbLine
 10
-187.2
 20
0.0
 30
0.0
 11
-187.2
 21
55.25
 31
0.0
  0
LINE
  5
1F2C
330
1EC7
100
AcDbEntity
  8
4
100
AcDbLine
 10
-179.4
 20
0.0
 30
0.0
 11
-179.4
 21
55.25
 31
0.0
  0
LINE
  5
1F2D
330
1EC7
100
AcDbEntity
  8
4
100
AcDbLine
 10
-166.1269718340444
 20
55.25
 30
0.0
 11
-166.1269718340444
 21
0.0000000000000568
 31
0.0
  0
LINE
  5
1F2E
330
1EC7
100
AcDbEntity
  8
4
100
AcDbLine
 10
-153.1269718340444
 20
55.25
 30
0.0
 11
-153.1269718340444
 21
0.0000000000000426
 31
0.0
  0
LINE
  5
1F2F
330
1EC7
100
AcDbEntity
  8
1
100
AcDbLine
 10
-141.6
 20
55.25
 30
0.0
 11
-141.6
 21
0.0000000000000426
 31
0.0
  0
LINE
  5
1F30
330
1EC7
100
AcDbEntity
  8
1
100
AcDbLine
 10
-97.39999999999998
 20
21.25000000000004
 30
0.0
 11
-97.39999999999998
 21
0.0000000000000284
 31
0.0
  0
LWPOLYLINE
  5
1F31
330
1EC7
100
AcDbEntity
  8
SCHRAFUR
 62
     2
100
AcDbPolyline
 90
       10
 70
     1
 43
0.0
 10
-124.2050944204746
 20
9.362603872644255
 42
-0.2878248726205669
 10
-125.351197977385
 20
10.08195108768824
 42
-0.2878248726205669
 10
-126.4973015342955
 20
9.362603872644255
 10
-129.1199430070051
 20
9.362603872644255
 10
-129.1199430070051
 20
11.90798632587635
 10
-126.4973015342955
 20
11.90798632587635
 42
-0.2878248726205669
 10
-125.351197977385
 20
11.18863911083237
 42
-0.2878248726205666
 10
-124.2050944204746
 20
11.90798632587635
 10
-122.4747776603247
 20
11.90798632587635
 42
-0.9999999999999998
 10
-122.4747776603247
 20
9.362603872644255
  0
LWPOLYLINE
  5
1F32
330
1EC7
100
AcDbEntity
  8
SCHRAFUR
 62
     2
100
AcDbPolyline
 90
        4
 70
     1
 43
0.0
 10
-114.3703968939391
 20
9.224562983916198
 42
-0.7635869553129523
 10
-124.6296031060609
 20
9.224562983916198
 10
-123.1154720216624
 20
9.224562983916198
 42
0.6850520295069698
 10
-115.8845279783376
 20
9.224562983916198
  0
LWPOLYLINE
  5
1F33
330
1EC7
100
AcDbEntity
  8
SCHRAFUR
 62
     2
100
AcDbPolyline
 90
        4
 70
     1
 43
0.0
 10
-117.5054347514386
 20
9.224562983916198
 10
-116.1232140296945
 20
9.224562983916227
 42
-0.6678631217639561
 10
-122.8767859703055
 20
9.224562983916227
 10
-121.4945652485614
 20
9.224562983916198
 42
0.5197497926717247
  0
TEXT
  5
1F34
330
1EC7
100
AcDbEntity
  8
TEXTE
100
AcDbText
 10
-140.552765831797
 20
0.909003677139907
 30
0.0
 40
2.5
  1
Urspr.:
  7
ISOCP
100
AcDbText
  0
TEXT
  5
1F35
330
1EC7
100
AcDbEntity
  8
TEXTE
100
AcDbText
 10
-96.35276583179702
 20
0.9090036771398928
 30
0.0
 40
2.5
  1
Ers. f.:
  7
ISOCP
100
AcDbText
  0
LINE
  5
1F36
330
1EC7
100
AcDbEntity
  8
1
100
AcDbLine
 10
-97.39999999999998
 20
55.25
 30
0.0
 11
-141.6
 21
55.25
 31
0.0
  0
LWPOLYLINE
  5
1F37
330
1EC7
100
AcDbEntity
  8
SCHRAFUR
 62
     2
100
AcDbPolyline
 90
       28
 70
     1
 43
0.0
 10
-110.3328791777036
 20
11.90798632587635
 10
-108.7815943955639
 20
9.383194071164751
 10
-110.0385664183526
 20
9.383194071164751
 10
-110.3148471604421
 20
9.832854562768034
 10
-111.9467801979518
 20
9.832854562768034
 10
-112.2230609400413
 20
9.383194071164751
 10
-114.5988757936953
 20
9.383194071164751
 10
-114.5988757936953
 20
10.2755297720258
 10
-115.1471453753698
 20
9.383194071164751
 10
-115.7812575407041
 20
9.383194071164751
 10
-116.3295271223787
 20
10.2755297720258
 10
-116.3295271223787
 20
9.383194071164751
 10
-117.729299162969
 20
9.383194071164751
 10
-117.729299162969
 20
11.20922930935297
 10
-118.8359871861134
 20
9.890329881889682
 10
-118.8359871861134
 20
9.383194071164751
 10
-120.1640128138866
 20
9.383194071164751
 10
-120.1640128138866
 20
9.890329881889682
 10
-121.8570275918783
 20
11.90798632587635
 10
-120.0863267548472
 20
11.90798632587635
 10
-119.5
 20
11.20922930935297
 10
-118.9136732451527
 20
11.90798632587635
 10
-116.0505282128843
 20
11.90798632587635
 10
-115.464201458037
 20
11.20922930935297
 10
-114.8778747031897
 20
11.90798632587635
 10
-113.1991037531049
 20
11.90798632587635
 10
-113.1991037531049
 20
9.890329881889682
 10
-111.9594137424509
 20
11.90798632587635
  0
LWPOLYLINE
  5
1F38
330
1EC7
100
AcDbEntity
  8
SCHRAFUR
 62
     2
100
AcDbPolyline
 90
        4
 70
     1
 43
0.0
 10
-114.3703968939391
 20
12.04602721460441
 42
0.7635869553129523
 10
-124.6296031060609
 20
12.04602721460441
 10
-123.1154720216624
 20
12.04602721460441
 42
-0.6850520295069698
 10
-115.8845279783376
 20
12.04602721460441
  0
LWPOLYLINE
  5
1F39
330
1EC7
100
AcDbEntity
  8
SCHRAFUR
 62
     2
100
AcDbPolyline
 90
        4
 70
     1
 43
0.0
 10
-117.5054347514386
 20
12.04602721460441
 10
-116.1232140296945
 20
12.04602721460438
 42
0.6678631217639561
 10
-122.8767859703055
 20
12.04602721460438
 10
-121.4945652485614
 20
12.04602721460441
 42
-0.5197497926717247
  0
LINE
  5
1F3A
330
1EC7
100
AcDbEntity
  8
1
100
AcDbLine
 10
-141.6
 20
17.00000000000004
 30
0.0
 11
-97.39999999999998
 21
17.00000000000004
 31
0.0
  0
LINE
  5
1F3B
330
1EC7
100
AcDbEntity
  8
4
100
AcDbLine
 10
-141.6
 20
21.25000000000004
 30
0.0
 11
-97.39999999999998
 21
21.25000000000004
 31
0.0
  0
LINE
  5
1F3C
330
1EC7
100
AcDbEntity
  8
4
100
AcDbLine
 10
-141.6
 20
25.50000000000004
 30
0.0
 11
-97.39999999999998
 21
25.50000000000004
 31
0.0
  0
LINE
  5
1F3D
330
1EC7
100
AcDbEntity
  8
4
100
AcDbLine
 10
-141.6
 20
29.75000000000004
 30
0.0
 11
-97.39999999999998
 21
29.75000000000004
 31
0.0
  0
LINE
  5
1F3E
330
1EC7
100
AcDbEntity
  8
4
100
AcDbLine
 10
-141.6
 20
34.00000000000004
 30
0.0
 11
-97.39999999999998
 21
34.00000000000004
 31
0.0
  0
LINE
  5
1F3F
330
1EC7
100
AcDbEntity
  8
4
100
AcDbLine
 10
-141.6
 20
21.25000000000004
 30
0.0
 11
-97.39999999999998
 21
21.25000000000004
 31
0.0
  0
LINE
  5
1F40
330
1EC7
100
AcDbEntity
  8
4
100
AcDbLine
 10
-131.2
 20
38.25
 30
0.0
 11
-131.2
 21
17.00000000000004
 31
0.0
  0
LWPOLYLINE
  5
1F41
330
1EC7
100
AcDbEntity
  8
SCHRAFUR
 62
     2
100
AcDbPolyline
 90
        4
 70
     1
 43
0.0
 10
-127.9025861815462
 20
11.02263590736085
 10
-127.9025861815462
 20
10.24795429115978
 10
-126.7958981584019
 20
10.24795429115978
 42
0.9999999999999998
 10
-126.7958981584019
 20
11.02263590736085
  0
LWPOLYLINE
  5
1F42
330
1EC7
100
AcDbEntity
  8
SCHRAFUR
 62
     2
100
AcDbPolyline
 90
        4
 70
     1
 43
0.0
 10
-124.039091217003
 20
10.24795429115977
 42
-0.9999999999999998
 10
-124.039091217003
 20
11.02263590736085
 10
-122.6407808637963
 20
11.02263590736085
 42
-0.9999999999999998
 10
-122.6407808637963
 20
10.24795429115977
  0
TEXT
  5
1F43
330
1EC7
100
AcDbEntity
  8
TEXTE
100
AcDbText
 10
-130.2
 20
35.0
 30
0.0
 40
2.5
  1
Datum
  7
ISOCP
100
AcDbText
  0
LINE
  5
1F44
330
1EC7
100
AcDbEntity
  8
4
100
AcDbLine
 10
-115.5999999999999
 20
38.25
 30
0.0
 11
-115.5999999999999
 21
17.00000000000004
 31
0.0
  0
LINE
  5
1F45
330
1EC7
100
AcDbEntity
  8
1
100
AcDbLine
 10
-97.39999999999998
 20
38.25
 30
0.0
 11
-97.39999999999998
 21
25.50000000000004
 31
0.0
  0
LWPOLYLINE
  5
1F46
330
1EC7
100
AcDbEntity
  8
SCHRAFUR
 62
     2
100
AcDbPolyline
 90
        3
 70
     1
 43
0.0
 10
-110.6548332099233
 20
10.38619857434025
 10
-111.130813679197
 20
11.1608801905413
 10
-111.6067941484706
 20
10.38619857434025
  0
LINE
  5
1F47
330
1EC7
100
AcDbEntity
  8
1
100
AcDbLine
 10
-97.39999999999998
 20
25.50000000000004
 30
0.0
 11
-97.39999999999998
 21
21.25000000000004
 31
0.0
  0
TEXT
  5
1F48
330
1EC7
100
AcDbEntity
  8
TEXTE
100
AcDbText
 10
-96.39999999999998
 20
9.274128980961492
 30
0.0
 40
2.5
  1
Kl.-Nr.:
  7
ISOCP
100
AcDbText
  0
TEXT
  5
1F49
330
1EC7
100
AcDbEntity
  8
TEXTE
100
AcDbText
 10
-96.39999999999998
 20
16.6372199876776
 30
0.0
 40
2.5
  1
Zg.-Nr.:
  7
ISOCP
100
AcDbText
  0
TEXT
  5
1F4A
330
1EC7
100
AcDbEntity
  8
TEXTE
100
AcDbText
 10
-114.5999999999999
 20
35.00000000000003
 30
0.0
 40
2.5
  1
Name
  7
ISOCP
100
AcDbText
  0
TEXT
  5
1F4B
330
1EC7
100
AcDbEntity
  8
TEXTE
100
AcDbText
 10
-96.39999999999998
 20
34.7856703898684
 30
0.0
 40
2.5
  1
Benennung
  7
ISOCP
100
AcDbText
  0
TEXT
  5
1F4C
330
1EC7
100
AcDbEntity
  8
TEXTE
100
AcDbText
 10
-183.9928141203591
 20
60.51937967832163
 30
0.0
 40
3.0
  1
ISO16016 beachten.
  7
ISOCP
100
AcDbText
  0
TEXT
  5
1F4D
330
1EC7
100
AcDbEntity
  8
TEXTE
100
AcDbText
 10
-183.9928141203591
 20
64.47760188519663
 30
0.0
 40
3.0
  1
Schutzvermerk 
  7
ISOCP
100
AcDbText
  0
LINE
  5
1F4E
330
1EC7
100
AcDbEntity
  8
4
100
AcDbLine
 10
-97.39999999999998
 20
68.0
 30
0.0
 11
-141.6
 21
68.0
 31
0.0
  0
TEXT
  5
1F4F
330
1EC7
100
AcDbEntity
  8
TEXTE
100
AcDbText
 10
-112.9010218565545
 20
68.9008935805993
 30
0.0
 40
2.5
  1
Maßstab
  7
ISOCP
100
AcDbText
  0
LINE
  5
1F50
330
1EC7
100
AcDbEntity
  8
1
100
AcDbLine
 10
0.0
 20
55.25
 30
0.0
 11
0.0
 21
72.25
 31
0.0
  0
LINE
  5
1F51
330
1EC7
100
AcDbEntity
  8
4
100
AcDbLine
 10
-66.4738835443696
 20
72.25
 30
0.0
 11
-66.4738835443696
 21
55.25
 31
0.0
  0
LINE
  5
1F52
330
1EC7
100
AcDbEntity
  8
1
100
AcDbLine
 10
0.0
 20
0.0
 30
0.0
 11
0.0
 21
55.25
 31
0.0
  0
LINE
  5
1F53
330
1EC7
100
AcDbEntity
  8
1
100
AcDbLine
 10
-48.69999999999993
 20
4.250000000000013
 30
0.0
 11
-48.69999999999993
 21
0.0000000000000142
 31
0.0
  0
TEXT
  5
1F54
330
1EC7
100
AcDbEntity
  8
TEXTE
100
AcDbText
 10
-47.65276583179707
 20
0.9090036771398786
 30
0.0
 40
2.5
  1
Ers. d.:
  7
ISOCP
100
AcDbText
  0
LINE
  5
1F55
330
1EC7
100
AcDbEntity
  8
2
  6
MITTE2
 48
0.5
100
AcDbLine
 10
-43.6427590943084
 20
47.80579963079343
 30
0.0
 11
-25.0784411186628
 21
47.80579963079343
 31
0.0
  0
TEXT
  5
1F56
330
1EC7
100
AcDbEntity
  8
TEXTE
100
AcDbText
 10
-28.05001384276364
 20
39.07889189167304
 30
0.0
 40
2.5
  1
METRIC
  7
ISOCP
100
AcDbText
  0
LINE
  5
1F57
330
1EC7
100
AcDbEntity
  8
1
100
AcDbLine
 10
-48.70000000000004
 20
55.25
 30
0.0
 11
-48.70000000000004
 21
38.25
 31
0.0
  0
LWPOLYLINE
  5
1F58
330
1EC7
100
AcDbEntity
  8
1
100
AcDbPolyline
 90
        5
 70
     0
 43
0.0
 10
-27.64275909430843
 20
52.80579963079343
 10
-41.6427590943084
 20
50.80579963079344
 10
-41.6427590943084
 20
44.80579963079343
 10
-27.64275909430843
 20
42.80579963079343
 10
-27.64275909430843
 20
52.80579963079343
  0
CIRCLE
  5
1F59
330
1EC7
100
AcDbEntity
  8
1
100
AcDbCircle
 10
-14.17049830471149
 20
47.80579963079343
 30
0.0
 40
5.0
  0
LINE
  5
1F5A
330
1EC7
100
AcDbEntity
  8
2
  6
MITTE2
 48
0.5
100
AcDbLine
 10
-14.17049830471149
 20
54.80579963079343
 30
0.0
 11
-14.17049830471149
 21
40.80579963079343
 31
0.0
  0
CIRCLE
  5
1F5B
330
1EC7
100
AcDbEntity
  8
1
100
AcDbCircle
 10
-14.17049830471149
 20
47.80579963079343
 30
0.0
 40
3.0
  0
LINE
  5
1F5C
330
1EC7
100
AcDbEntity
  8
2
  6
MITTE2
 48
0.5
100
AcDbLine
 10
-22.09252775403979
 20
47.80579963079343
 30
0.0
 11
-7.170498304711486
 21
47.80579963079343
 31
0.0
  0
LINE
  5
1F5D
330
1EC7
100
AcDbEntity
  8
1
100
AcDbLine
 10
0.0
 20
38.25
 30
0.0
 11
0.0
 21
55.25
 31
0.0
  0
ENDBLK
  5
1F5F
330
1EC7
100
AcDbEntity
  8
0
100
AcDbBlockEnd
  0
BLOCK
  5
231B
330
2319
100
AcDbEntity
  8
0
100
AcDbBlockBegin
  2
Toleranz1000
 70
     0
 10
0.0
 20
0.0
 30
0.0
  3
Toleranz1000
  1

  0
MTEXT
  5
231A
330
2319
100
AcDbEntity
  8
4-TEXT
100
AcDbMText
 10
22.42818946620355
 20
8.554401179611311
 30
0.0
 40
2.5
 41
42.20729999999998
 71
     5
 72
     5
  1
In Spezifikation nicht angegebene Toleranzen nach Allgemeintoleranzen ISO 2768-c
 73
     1
 44
1.0
  0
ENDBLK
  5
231C
330
2319
100
AcDbEntity
  8
0
100
AcDbBlockEnd
  0
BLOCK
  5
2366
330
232F
100
AcDbEntity
  8
0
100
AcDbBlockBegin
  2
Datenblatt 13.02.02
 70
     2
 10
0.0
 20
0.0
 30
0.0
  3
Datenblatt 13.02.02
  1

  0
LINE
  5
2330
330
232F
100
AcDbEntity
  8
OBJEKT
100
AcDbLine
 10
-187.1999999999999
 20
27.99565768088456
 30
0.0
 11
-44.40833707163906
 21
27.99565768088456
 31
0.0
  0
MTEXT
  5
2331
330
232F
100
AcDbEntity
  8
5
100
AcDbMText
 10
-186.0052453530775
 20
26.33140066529037
 30
0.0
 40
2.5
 41
54.7295
 71
     1
 72
     5
  1
Außen/Großring %%c:
 73
     1
 44
1.0
  0
LINE
  5
2332
330
232F
100
AcDbEntity
  8
OBJEKT
100
AcDbLine
 10
-187.2
 20
0.0
 30
0.0
 11
-187.1999999999999
 21
27.99565768088456
 31
0.0
  0
MTEXT
  5
2333
330
232F
100
AcDbEntity
  8
5
100
AcDbMText
 10
-140.340670268571
 20
26.74828593040781
 30
0.0
 40
2.5
 41
63.7959
 71
     1
 72
     5
  1
Anzahl  Gestell%%c  Gummi%%c  Medienr.%%c
  7
ISOCP
 73
     1
 44
1.0
  0
LINE
  5
2334
330
232F
100
AcDbEntity
  8
OBJEKT
100
AcDbLine
 10
-141.6
 20
0.0
 30
0.0
 11
-141.6
 21
27.99565768088456
 31
0.0
  0
LINE
  5
2335
330
232F
100
AcDbEntity
  8
SCHRAFFUR
100
AcDbLine
 10
-156.2
 20
0.0
 30
0.0
 11
-156.1999999999999
 21
27.99565768088456
 31
0.0
  0
LINE
  5
2336
330
232F
100
AcDbEntity
  8
SCHRAFFUR
100
AcDbLine
 10
-114.1
 20
0.0
 30
0.0
 11
-114.1
 21
27.99565768088459
 31
0.0
  0
LINE
  5
2337
330
232F
100
AcDbEntity
  8
SCHRAFFUR
100
AcDbLine
 10
-129.6
 20
0.0
 30
0.0
 11
-129.6
 21
27.99565768088456
 31
0.0
  0
MTEXT
  5
2338
330
232F
100
AcDbEntity
  8
5
100
AcDbMText
 10
-82.98527047254308
 20
26.13085352612995
 30
0.0
 40
1.999999999999999
 41
52.55510000000001
 71
     1
 72
     5
  1
Gummi Außen%%c:\PGestell Material:\PGummi Material:\PAuftrag Nr.:              Pos.Nr.:
  7
ISOCP
 73
     1
 44
1.0
  0
LINE
  5
2339
330
232F
100
AcDbEntity
  8
OBJEKT
100
AcDbLine
 10
-84.10415155719022
 20
0.0
 30
0.0
 11
-84.10415155719022
 21
27.99565768088456
 31
0.0
  0
LINE
  5
233A
330
232F
100
AcDbEntity
  8
SCHRAFFUR
100
AcDbLine
 10
-101.1041515571902
 20
0.0
 30
0.0
 11
-101.1041515571902
 21
27.99565768088456
 31
0.0
  0
LINE
  5
233B
330
232F
100
AcDbEntity
  8
OBJEKT
100
AcDbLine
 10
-44.40833707163903
 20
-0.0000000000000009
 30
0.0
 11
-44.40833707163903
 21
27.99565768088456
 31
0.0
  0
MTEXT
  5
233D
330
232F
100
AcDbEntity
  8
5
100
AcDbMText
 10
-186.0052453530775
 20
18.3314006652904
 30
0.0
 40
2.5
 41
54.7295
 71
     1
 72
     5
  1
Lochkreis %%c:
 73
     1
 44
1.0
  0
MTEXT
  5
233E
330
232F
100
AcDbEntity
  8
5
100
AcDbMText
 10
-186.0052453530775
 20
12.33140066529037
 30
0.0
 40
2.5
 41
54.7295
 71
     1
 72
     5
  1
Bolzen x Anzahl:
 73
     1
 44
1.0
  0
MTEXT
  5
233F
330
232F
100
AcDbEntity
  8
5
100
AcDbMText
 10
-186.0052453530775
 20
5.331400665290401
 30
0.0
 40
2.5
 41
54.7295
 71
     1
 72
     5
  1
Bolzenbohrungs %%c:
 73
     1
 44
1.0
  0
LINE
  5
2340
330
232F
100
AcDbEntity
  8
SCHRAFFUR
100
AcDbLine
 10
-187.1999999999999
 20
20.99565768088456
 30
0.0
 11
-141.6
 21
20.99565768088456
 31
0.0
  0
LINE
  5
2341
330
232F
100
AcDbEntity
  8
SCHRAFFUR
100
AcDbLine
 10
-187.1999999999999
 20
13.99565768088456
 30
0.0
 11
-141.6
 21
13.99565768088456
 31
0.0
  0
LINE
  5
2342
330
232F
100
AcDbEntity
  8
SCHRAFFUR
100
AcDbLine
 10
-187.1999999999999
 20
6.995657680884562
 30
0.0
 11
-141.6
 21
6.995657680884562
 31
0.0
  0
LINE
  5
2343
330
232F
100
AcDbEntity
  8
SCHRAFFUR
100
AcDbLine
 10
-141.6
 20
22.39565768088457
 30
0.0
 11
-84.10415155719022
 21
22.39565768088457
 31
0.0
  0
LINE
  5
2344
330
232F
100
AcDbEntity
  8
SCHRAFFUR
100
AcDbLine
 10
-141.6
 20
5.595657680884528
 30
0.0
 11
-84.10415155719022
 21
5.595657680884528
 31
0.0
  0
LINE
  5
2345
330
232F
100
AcDbEntity
  8
SCHRAFFUR
100
AcDbLine
 10
-141.6
 20
11.19565768088455
 30
0.0
 11
-84.10415155719022
 21
11.19565768088455
 31
0.0
  0
LINE
  5
2346
330
232F
100
AcDbEntity
  8
SCHRAFFUR
100
AcDbLine
 10
-141.6
 20
16.79565768088457
 30
0.0
 11
-84.10415155719022
 21
16.79565768088457
 31
0.0
  0
MTEXT
  5
2347
330
232F
100
AcDbEntity
  8
5
100
AcDbMText
 10
-82.93711998001038
 20
3.150997337964781
 30
0.0
 40
2.0
 41
54.7295
 71
     1
 72
     5
  1
Gültigkeitsdatum:
 73
     1
 44
1.0
  0
MTEXT
  5
2348
330
232F
100
AcDbEntity
  8
5
100
AcDbMText
 10
-82.93711998001038
 20
6.845375492574246
 30
0.0
 40
2.0
 41
54.7295
 71
     1
 72
     5
  1
Lfd.-Nr.:275-
 73
     1
 44
1.0
  0
MTEXT
  5
2349
330
232F
100
AcDbEntity
  8
5
100
AcDbMText
 10
-82.93711998001034
 20
10.47911066923575
 30
0.0
 40
1.999999999999999
 41
54.72949999999999
 71
     1
 72
     5
  1
Fehlende Angaben Spezifikation
 73
     1
 44
1.0
  0
LINE
  5
234A
330
232F
100
AcDbEntity
  8
SCHRAFFUR
100
AcDbLine
 10
-44.40833707163903
 20
11.84312884486814
 30
0.0
 11
-84.1041515571902
 21
11.84312884486814
 31
0.0
  0
ATTDEF
  5
234B
330
232F
100
AcDbEntity
  8
5
 62
     6
100
AcDbText
 10
-155.1309313309483
 20
23.42135642318396
 30
0.0
 40
2.5
  1
.
 51
10.0
  7
ISOCP
100
AcDbAttributeDefinition
  3
Außen/Großring%%c
  2
.
 70
     0
  0
ATTDEF
  5
234C
330
232F
100
AcDbEntity
  8
5
 62
     6
100
AcDbText
 10
-155.1309313309483
 20
16.42135642318396
 30
0.0
 40
2.5
  1
.
 51
10.0
  7
ISOCP
100
AcDbAttributeDefinition
  3
Lochkreis%%c
  2
.
 70
     0
  0
ATTDEF
  5
234D
330
232F
100
AcDbEntity
  8
5
 62
     6
100
AcDbText
 10
-155.1309313309483
 20
9.421356423183963
 30
0.0
 40
2.5
  1
.
 51
10.0
  7
ISOCP
100
AcDbAttributeDefinition
  3
Bolzen x Anzahl
  2
.
 70
     0
  0
ATTDEF
  5
234E
330
232F
100
AcDbEntity
  8
5
 62
     6
100
AcDbText
 10
-155.1309313309483
 20
2.425698742299401
 30
0.0
 40
2.5
  1
.
 51
10.0
  7
ISOCP
100
AcDbAttributeDefinition
  3
Bolzenbohrungs%%c
  2
.
 70
     0
  0
ATTDEF
  5
234F
330
232F
100
AcDbEntity
  8
5
 62
     6
100
AcDbText
 10
-137.5977460648357
 20
18.41373671921519
 30
0.0
 40
2.0
  1
.
 51
10.0
  7
ISOCP
100
AcDbAttributeDefinition
  3
Anzahl1
  2
.
 70
     0
  0
ATTDEF
  5
2350
330
232F
100
AcDbEntity
  8
5
 62
     6
100
AcDbText
 10
-126.0718560374971
 20
18.41373671921519
 30
0.0
 40
2.0
  1
.
 51
10.0
  7
ISOCP
100
AcDbAttributeDefinition
  3
Gestell%%c1
  2
.
 70
     0
  0
ATTDEF
  5
2351
330
232F
100
AcDbEntity
  8
5
 62
     6
100
AcDbText
 10
-112.1838325543763
 20
18.41373671921519
 30
0.0
 40
2.0
  1
.
 51
10.0
  7
ISOCP
100
AcDbAttributeDefinition
  3
Gummi%%c1
  2
.
 70
     0
  0
ATTDEF
  5
2352
330
232F
100
AcDbEntity
  8
5
 62
     6
100
AcDbText
 10
-97.38636425808062
 20
18.41373671921519
 30
0.0
 40
2.0
  1
.
 51
10.0
  7
ISOCP
100
AcDbAttributeDefinition
  3
Medienr.1
  2
.
 70
     0
  0
ATTDEF
  5
2353
330
232F
100
AcDbEntity
  8
5
 62
     6
100
AcDbText
 10
-137.5977460648357
 20
12.81373671921517
 30
0.0
 40
2.0
  1
.
 51
10.0
  7
ISOCP
100
AcDbAttributeDefinition
  3
Anzahl2
  2
.
 70
     0
  0
ATTDEF
  5
2354
330
232F
100
AcDbEntity
  8
5
 62
     6
100
AcDbText
 10
-126.0718560374971
 20
12.81373671921517
 30
0.0
 40
2.0
  1
.
 51
10.0
  7
ISOCP
100
AcDbAttributeDefinition
  3
Gestell%%c2
  2
.
 70
     0
  0
ATTDEF
  5
2355
330
232F
100
AcDbEntity
  8
5
 62
     6
100
AcDbText
 10
-112.1838325543763
 20
12.81373671921517
 30
0.0
 40
2.0
  1
.
 51
10.0
  7
ISOCP
100
AcDbAttributeDefinition
  3
Gummi%%c2
  2
.
 70
     0
  0
ATTDEF
  5
2356
330
232F
100
AcDbEntity
  8
5
 62
     6
100
AcDbText
 10
-97.38636425808062
 20
12.81373671921517
 30
0.0
 40
2.0
  1
.
 51
10.0
  7
ISOCP
100
AcDbAttributeDefinition
  3
Medienr.2
  2
.
 70
     0
  0
ATTDEF
  5
2357
330
232F
100
AcDbEntity
  8
5
 62
     6
100
AcDbText
 10
-137.5977460648357
 20
7.213736719215204
 30
0.0
 40
2.0
  1
.
 51
10.0
  7
ISOCP
100
AcDbAttributeDefinition
  3
Anzahl3
  2
.
 70
     0
  0
ATTDEF
  5
2358
330
232F
100
AcDbEntity
  8
5
 62
     6
100
AcDbText
 10
-126.0718560374971
 20
7.213736719215204
 30
0.0
 40
2.0
  1
.
 51
10.0
  7
ISOCP
100
AcDbAttributeDefinition
  3
Gestell%%c3
  2
.
 70
     0
  0
ATTDEF
  5
2359
330
232F
100
AcDbEntity
  8
5
 62
     6
100
AcDbText
 10
-112.1838325543763
 20
7.213736719215204
 30
0.0
 40
2.0
  1
.
 51
10.0
  7
ISOCP
100
AcDbAttributeDefinition
  3
Gummi%%c3
  2
.
 70
     0
  0
ATTDEF
  5
235A
330
232F
100
AcDbEntity
  8
5
 62
     6
100
AcDbText
 10
-97.38636425808062
 20
7.213736719215204
 30
0.0
 40
2.0
  1
.
 51
10.0
  7
ISOCP
100
AcDbAttributeDefinition
  3
Medienr.3
  2
.
 70
     0
  0
ATTDEF
  5
235B
330
232F
100
AcDbEntity
  8
5
 62
     6
100
AcDbText
 10
-137.5977460648357
 20
1.61807903833062
 30
0.0
 40
2.0
  1
.
 51
10.0
  7
ISOCP
100
AcDbAttributeDefinition
  3
Anzahl4
  2
.
 70
     0
  0
ATTDEF
  5
235C
330
232F
100
AcDbEntity
  8
5
 62
     6
100
AcDbText
 10
-126.0718560374971
 20
1.61807903833062
 30
0.0
 40
2.0
  1
.
 51
10.0
  7
ISOCP
100
AcDbAttributeDefinition
  3
Gestell%%c4
  2
.
 70
     0
  0
ATTDEF
  5
235D
330
232F
100
AcDbEntity
  8
5
 62
     6
100
AcDbText
 10
-112.1838325543763
 20
1.61807903833062
 30
0.0
 40
2.0
  1
.
 51
10.0
  7
ISOCP
100
AcDbAttributeDefinition
  3
Gummi%%c4
  2
.
 70
     0
  0
ATTDEF
  5
235E
330
232F
100
AcDbEntity
  8
5
 62
     6
100
AcDbText
 10
-97.38636425808062
 20
1.61807903833062
 30
0.0
 40
2.0
  1
.
 51
10.0
  7
ISOCP
100
AcDbAttributeDefinition
  3
Medienr.4
  2
.
 70
     0
  0
ATTDEF
  5
235F
330
232F
100
AcDbEntity
  8
5
 62
     6
100
AcDbText
 10
-60.56627149556358
 20
24.2301792243012
 30
0.0
 40
2.5
  1
.
 51
10.0
  7
ISOCP
100
AcDbAttributeDefinition
  3
Gummi Außen%%c
  2
.
 70
     0
  0
ATTDEF
  5
2360
330
232F
100
AcDbEntity
  8
5
 62
     6
100
AcDbText
 10
-60.56627149556358
 20
20.56214714947623
 30
0.0
 40
2.5
  1
.
 51
10.0
  7
ISOCP
100
AcDbAttributeDefinition
  3
Gestell Material
  2
.
 70
     0
  0
ATTDEF
  5
2361
330
232F
100
AcDbEntity
  8
5
 62
     6
100
AcDbText
 10
-60.56627149556358
 20
17.30907520043684
 30
0.0
 40
2.5
  1
.
 51
10.0
  7
ISOCP
100
AcDbAttributeDefinition
  3
Gummi Material
  2
.
 70
     0
  0
ATTDEF
  5
2362
330
232F
100
AcDbEntity
  8
5
 62
     6
100
AcDbText
 10
-68.85446858067735
 20
14.06783807991337
 30
0.0
 40
2.5
  1
.
 51
10.0
  7
ISOCP
100
AcDbAttributeDefinition
  3
Auftrag Nr.:
  2
.
 70
     0
  0
ATTDEF
  5
2363
330
232F
100
AcDbEntity
  8
5
 62
     6
100
AcDbText
 10
-48.84455827863053
 20
14.06783807991337
 30
0.0
 40
2.5
  1
.
 51
10.0
  7
ISOCP
100
AcDbAttributeDefinition
  3
Pos.Nr.:
  2
.
 70
     0
  0
ATTDEF
  5
2364
330
232F
100
AcDbEntity
  8
5
 62
     6
100
AcDbText
 10
-67.20762069406942
 20
4.744364904269558
 30
0.0
 40
2.5
  1
.
 51
10.0
  7
ISOCP
100
AcDbAttributeDefinition
  3
275-
  2
.
 70
     0
  0
ATTDEF
  5
2365
330
232F
100
AcDbEntity
  8
5
 62
     6
100
AcDbText
 10
-59.78161188052308
 20
1.207657901680248
 30
0.0
 40
2.5
  1
.
 51
10.0
  7
ISOCP
100
AcDbAttributeDefinition
  3
Spez.-Datum
  2
.
 70
     0
  0
ENDBLK
  5
2367
330
232F
100
AcDbEntity
  8
0
100
AcDbBlockEnd
  0
BLOCK
  5
258A
330
2588
100
AcDbEntity
  8
0
100
AcDbBlockBegin
  2
*Paper_Space4
 70
     0
 10
0.0
 20
0.0
 30
0.0
  3
*Paper_Space4
  1

  0
VIEWPORT
  5
2593
330
2588
100
AcDbEntity
  8
0
100
AcDbViewport
 10
175.5842976387666
 20
177.7326519672899
 30
0.0
 40
507.8622552467034
 41
346.6224560427416
 69
     0
 12
175.5842976387666
 22
177.7326519672899
 13
0.0
 23
0.0
 14
10.0
 24
10.0
 15
10.0
 25
10.0
 16
0.0
 26
0.0
 36
1.0
 17
0.0
 27
0.0
 37
0.0
 42
50.0
 43
0.0
 44
0.0
 45
346.6224560427416
 50
0.0
 51
0.0
 72
   100
331
2499
 90
    32800
  1

281
     0
 71
     1
 74
     0
110
0.0
120
0.0
130
0.0
111
1.0
121
0.0
131
0.0
112
0.0
122
1.0
132
0.0
 79
     0
146
0.0
170
     0
  0
INSERT
  5
25FF
330
2588
100
AcDbEntity
  8
OBJEKT
100
AcDbBlockReference
 66
     1
  2
Datenblatt 13.02.02
 10
194.7175057884606
 20
78.25021625155795
 30
0.0
  0
ATTRIB
  5
2600
330
25FF
100
AcDbEntity
  8
5
 62
     6
100
AcDbText
 10
39.58657445751223
 20
101.6715726747419
 30
0.0
 40
2.5
  1
.
 51
10.0
  7
ISOCP
100
AcDbAttribute
  2
.
 70
     0
  0
ATTRIB
  5
2601
330
25FF
100
AcDbEntity
  8
5
 62
     6
100
AcDbText
 10
39.58657445751223
 20
94.6715726747419
 30
0.0
 40
2.5
  1
.
 51
10.0
  7
ISOCP
100
AcDbAttribute
  2
.
 70
     0
  0
ATTRIB
  5
2602
330
25FF
100
AcDbEntity
  8
5
 62
     6
100
AcDbText
 10
39.58657445751223
 20
87.67157267474194
 30
0.0
 40
2.5
  1
.
 51
10.0
  7
ISOCP
100
AcDbAttribute
  2
.
 70
     0
  0
ATTRIB
  5
2603
330
25FF
100
AcDbEntity
  8
5
 62
     6
100
AcDbText
 10
39.58657445751223
 20
80.67591499385736
 30
0.0
 40
2.5
  1
.
 51
10.0
  7
ISOCP
100
AcDbAttribute
  2
.
 70
     0
  0
ATTRIB
  5
2604
330
25FF
100
AcDbEntity
  8
5
 62
     6
100
AcDbText
 10
57.11975972362484
 20
96.66395297077317
 30
0.0
 40
2.0
  1
.
 51
10.0
  7
ISOCP
100
AcDbAttribute
  2
.
 70
     0
  0
ATTRIB
  5
2605
330
25FF
100
AcDbEntity
  8
5
 62
     6
100
AcDbText
 10
68.64564975096346
 20
96.66395297077317
 30
0.0
 40
2.0
  1
.
 51
10.0
  7
ISOCP
100
AcDbAttribute
  2
.
 70
     0
  0
ATTRIB
  5
2606
330
25FF
100
AcDbEntity
  8
5
 62
     6
100
AcDbText
 10
82.53367323408431
 20
96.66395297077317
 30
0.0
 40
2.0
  1
.
 51
10.0
  7
ISOCP
100
AcDbAttribute
  2
.
 70
     0
  0
ATTRIB
  5
2607
330
25FF
100
AcDbEntity
  8
5
 62
     6
100
AcDbText
 10
97.33114153037995
 20
96.66395297077317
 30
0.0
 40
2.0
  1
.
 51
10.0
  7
ISOCP
100
AcDbAttribute
  2
.
 70
     0
  0
ATTRIB
  5
2608
330
25FF
100
AcDbEntity
  8
5
 62
     6
100
AcDbText
 10
57.11975972362484
 20
91.06395297077312
 30
0.0
 40
2.0
  1
.
 51
10.0
  7
ISOCP
100
AcDbAttribute
  2
.
 70
     0
  0
ATTRIB
  5
2609
330
25FF
100
AcDbEntity
  8
5
 62
     6
100
AcDbText
 10
68.64564975096346
 20
91.06395297077312
 30
0.0
 40
2.0
  1
.
 51
10.0
  7
ISOCP
100
AcDbAttribute
  2
.
 70
     0
  0
ATTRIB
  5
260A
330
25FF
100
AcDbEntity
  8
5
 62
     6
100
AcDbText
 10
82.53367323408431
 20
91.06395297077312
 30
0.0
 40
2.0
  1
.
 51
10.0
  7
ISOCP
100
AcDbAttribute
  2
.
 70
     0
  0
ATTRIB
  5
260B
330
25FF
100
AcDbEntity
  8
5
 62
     6
100
AcDbText
 10
97.33114153037995
 20
91.06395297077312
 30
0.0
 40
2.0
  1
.
 51
10.0
  7
ISOCP
100
AcDbAttribute
  2
.
 70
     0
  0
ATTRIB
  5
260C
330
25FF
100
AcDbEntity
  8
5
 62
     6
100
AcDbText
 10
57.11975972362484
 20
85.46395297077316
 30
0.0
 40
2.0
  1
.
 51
10.0
  7
ISOCP
100
AcDbAttribute
  2
.
 70
     0
  0
ATTRIB
  5
260D
330
25FF
100
AcDbEntity
  8
5
 62
     6
100
AcDbText
 10
68.64564975096346
 20
85.46395297077316
 30
0.0
 40
2.0
  1
.
 51
10.0
  7
ISOCP
100
AcDbAttribute
  2
.
 70
     0
  0
ATTRIB
  5
260E
330
25FF
100
AcDbEntity
  8
5
 62
     6
100
AcDbText
 10
82.53367323408431
 20
85.46395297077316
 30
0.0
 40
2.0
  1
.
 51
10.0
  7
ISOCP
100
AcDbAttribute
  2
.
 70
     0
  0
ATTRIB
  5
260F
330
25FF
100
AcDbEntity
  8
5
 62
     6
100
AcDbText
 10
97.33114153037995
 20
85.46395297077316
 30
0.0
 40
2.0
  1
.
 51
10.0
  7
ISOCP
100
AcDbAttribute
  2
.
 70
     0
  0
ATTRIB
  5
2610
330
25FF
100
AcDbEntity
  8
5
 62
     6
100
AcDbText
 10
57.11975972362484
 20
79.86829528988858
 30
0.0
 40
2.0
  1
.
 51
10.0
  7
ISOCP
100
AcDbAttribute
  2
.
 70
     0
  0
ATTRIB
  5
2611
330
25FF
100
AcDbEntity
  8
5
 62
     6
100
AcDbText
 10
68.64564975096346
 20
79.86829528988858
 30
0.0
 40
2.0
  1
.
 51
10.0
  7
ISOCP
100
AcDbAttribute
  2
.
 70
     0
  0
ATTRIB
  5
2612
330
25FF
100
AcDbEntity
  8
5
 62
     6
100
AcDbText
 10
82.53367323408431
 20
79.86829528988858
 30
0.0
 40
2.0
  1
.
 51
10.0
  7
ISOCP
100
AcDbAttribute
  2
.
 70
     0
  0
ATTRIB
  5
2613
330
25FF
100
AcDbEntity
  8
5
 62
     6
100
AcDbText
 10
97.33114153037995
 20
79.86829528988858
 30
0.0
 40
2.0
  1
.
 51
10.0
  7
ISOCP
100
AcDbAttribute
  2
.
 70
     0
  0
ATTRIB
  5
2614
330
25FF
100
AcDbEntity
  8
5
 62
     6
100
AcDbText
 10
134.151234292897
 20
102.480395475859
 30
0.0
 40
2.5
  1
.
 51
10.0
  7
ISOCP
100
AcDbAttribute
  2
.
 70
     0
  0
ATTRIB
  5
2615
330
25FF
100
AcDbEntity
  8
5
 62
     6
100
AcDbText
 10
134.151234292897
 20
98.8123634010342
 30
0.0
 40
2.5
  1
.
 51
10.0
  7
ISOCP
100
AcDbAttribute
  2
.
 70
     0
  0
ATTRIB
  5
2616
330
25FF
100
AcDbEntity
  8
5
 62
     6
100
AcDbText
 10
134.151234292897
 20
95.55929145199479
 30
0.0
 40
2.5
  1
.
 51
10.0
  7
ISOCP
100
AcDbAttribute
  2
.
 70
     0
  0
ATTRIB
  5
2617
330
25FF
100
AcDbEntity
  8
5
 62
     6
100
AcDbText
 10
125.8630372077832
 20
92.31805433147131
 30
0.0
 40
2.5
  1
.
 51
10.0
  7
ISOCP
100
AcDbAttribute
  2
.
 70
     0
  0
ATTRIB
  5
2618
330
25FF
100
AcDbEntity
  8
5
 62
     6
100
AcDbText
 10
145.87294750983
 20
92.31805433147131
 30
0.0
 40
2.5
  1
.
 51
10.0
  7
ISOCP
100
AcDbAttribute
  2
.
 70
     0
  0
ATTRIB
  5
2619
330
25FF
100
AcDbEntity
  8
5
 62
     6
100
AcDbText
 10
127.5098850943911
 20
82.99458115582751
 30
0.0
 40
2.5
  1
.
 51
10.0
  7
ISOCP
100
AcDbAttribute
  2
.
 70
     0
  0
ATTRIB
  5
261A
330
25FF
100
AcDbEntity
  8
5
 62
     6
100
AcDbText
 10
134.9358939079375
 20
79.4578741532382
 30
0.0
 40
2.5
  1
.
 51
10.0
  7
ISOCP
100
AcDbAttribute
  2
.
 70
     0
  0
SEQEND
  5
261B
330
25FF
100
AcDbEntity
  8
OBJEKT
  0
INSERT
  5
261C
330
2588
100
AcDbEntity
  8
OBJEKT
100
AcDbBlockReference
  2
Toleranz1000
 10
97.3175057884606
 20
44.25021625155795
 30
0.0
  0
INSERT
  5
261D
330
2588
100
AcDbEntity
  8
OBJEKT
100
AcDbBlockReference
 66
     1
  2
schriftfeld-31.01.02
 10
194.7175057884606
 20
6.000216251557956
 30
0.0
  0
ATTRIB
  5
261E
330
261D
100
AcDbEntity
  8
TEXTE
 62
     6
370
    35
100
AcDbText
 10
152.138479988802
 20
33.41868783398286
 30
0.0
 40
3.5
  1

  7
ISOCP
 72
     1
 11
152.138479988802
 21
33.41868783398286
 31
0.0
100
AcDbAttribute
  2
BENENNUNG
 70
     0
  0
ATTRIB
  5
261F
330
261D
100
AcDbEntity
  8
TEXTE
100
AcDbText
 10
112.8295725145258
 20
22.52558733619935
 30
0.0
 40
3.5
  1
4
  7
ISOCP
100
AcDbAttribute
  2
A?
 70
     0
  0
ATTRIB
  5
2620
330
261D
100
AcDbEntity
  8
TEXTE
 62
     6
370
    35
100
AcDbText
 10
149.8485878259398
 20
22.61333637146947
 30
0.0
 40
3.5
  1
 
  7
ISOCP
 72
     1
 11
150.5485878259398
 21
22.61333637146947
 31
0.0
100
AcDbAttribute
  2
ZNR
 70
     0
  0
ATTRIB
  5
2621
330
261D
100
AcDbEntity
  8
TEXTE
100
AcDbText
 10
109.0052621480974
 20
15.13702454785834
 30
0.0
 40
3.5
  1
 
 41
61.22303117168798
  7
ISOCP
 72
     5
 11
194.7175057884606
 21
15.13702454785834
 31
0.0
100
AcDbAttribute
  2
KL.NR.
 70
     0
  0
ATTRIB
  5
2622
330
261D
100
AcDbEntity
  8
TEXTE
100
AcDbText
 10
64.67498943747307
 20
24.06889258289368
 30
0.0
 40
2.5
  1
 
  7
ISOCP
100
AcDbAttribute
  2
CADDAT
 70
     0
  0
ATTRIB
  5
2623
330
261D
100
AcDbEntity
  8
TEXTE
100
AcDbText
 10
80.22550705188859
 20
24.06889258289368
 30
0.0
 40
2.5
  1
 
  7
ISOCP
100
AcDbAttribute
  2
BEARBNAME
 70
     0
  0
ATTRIB
  5
2624
330
261D
100
AcDbEntity
  8
TEXTE
100
AcDbText
 10
64.67498943747313
 20
36.81889258289368
 30
0.0
 40
2.5
  1
 
  7
ISOCP
100
AcDbAttribute
  2
BEARBDAT
 70
     0
  0
ATTRIB
  5
2625
330
261D
100
AcDbEntity
  8
TEXTE
100
AcDbText
 10
80.22550705188859
 20
36.81889258289368
 30
0.0
 40
2.5
  1
 
  7
ISOCP
100
AcDbAttribute
  2
BEARBNAME
 70
     0
  0
ATTRIB
  5
2626
330
261D
100
AcDbEntity
  8
TEXTE
100
AcDbText
 10
64.67498943747313
 20
32.56889258289368
 30
0.0
 40
2.5
  1
 
  7
ISOCP
100
AcDbAttribute
  2
GEPR-DAT
 70
     0
  0
ATTRIB
  5
2627
330
261D
100
AcDbEntity
  8
TEXTE
100
AcDbText
 10
80.22550705188859
 20
32.56889258289368
 30
0.0
 40
2.5
  1

  7
ISOCP
100
AcDbAttribute
  2
GEPÜNAME
 70
     0
  0
ATTRIB
  5
2628
330
261D
100
AcDbEntity
  8
TEXTE
100
AcDbText
 10
64.67498943747307
 20
28.31889258289368
 30
0.0
 40
2.5
  1

  7
ISOCP
100
AcDbAttribute
  2
NORMBDAT
 70
     0
  0
ATTRIB
  5
2629
330
261D
100
AcDbEntity
  8
TEXTE
100
AcDbText
 10
80.22550705188859
 20
28.31889258289368
 30
0.0
 40
2.5
  1
 
  7
ISOCP
100
AcDbAttribute
  2
BEARBNAME
 70
     0
  0
ATTRIB
  5
262A
330
261D
100
AcDbEntity
  8
TEXTE
100
AcDbText
 10
87.88205838204664
 20
70.81889258289362
 30
0.0
 40
2.5
  1
.
  7
ISOCP
 72
     1
 11
88.25705838204664
 21
70.81889258289362
 31
0.0
100
AcDbAttribute
  2
MAßSTAB1
 70
     0
  0
ATTRIB
  5
262B
330
261D
100
AcDbEntity
  8
TEXTE
100
AcDbText
 10
88.0974940344225
 20
66.56889258289362
 30
0.0
 40
2.5
  1
 
  7
ISOCP
 72
     1
 11
88.59749403442249
 21
66.56889258289362
 31
0.0
100
AcDbAttribute
  2
MAßSTAB2
 70
     0
  0
ATTRIB
  5
262C
330
261D
100
AcDbEntity
  8
TEXTE
100
AcDbText
 10
88.0974940344225
 20
62.31889258289363
 30
0.0
 40
2.5
  1
 
  7
ISOCP
 72
     1
 11
88.59749403442249
 21
62.31889258289363
 31
0.0
100
AcDbAttribute
  2
MAßSTAB3
 70
     0
  0
ATTRIB
  5
262D
330
261D
100
AcDbEntity
  8
TEXTE
100
AcDbText
 10
64.67498943747319
 20
7.068892582893681
 30
0.0
 40
2.5
  1
.
  7
ISOCP
100
AcDbAttribute
  2
URSPRUNG
 70
     0
  0
ATTRIB
  5
262E
330
261D
100
AcDbEntity
  8
TEXTE
100
AcDbText
 10
108.8749894374732
 20
7.068892582893681
 30
0.0
 40
2.5
  1
.
  7
ISOCP
100
AcDbAttribute
  2
ERSETZTFÜR
 70
     0
  0
ATTRIB
  5
262F
330
261D
100
AcDbEntity
  8
TEXTE
100
AcDbText
 10
157.574989437473
 20
7.068892582893623
 30
0.0
 40
2.5
  1
.
  7
ISOCP
100
AcDbAttribute
  2
ERSTELLTFÜR
 70
     0
  0
ATTRIB
  5
2630
330
261D
100
AcDbEntity
  8
TEXTE
100
AcDbText
 10
8.674989437473129
 20
11.31889258289368
 30
0.0
 40
2.5
  1
 
  7
ISOCP
100
AcDbAttribute
  2
ZUST.
 70
     0
  0
ATTRIB
  5
2631
330
261D
100
AcDbEntity
  8
TEXTE
100
AcDbText
 10
16.81928398878085
 20
11.31889258289368
 30
0.0
 40
2.5
  1
 
  7
ISOCP
100
AcDbAttribute
  2
ÄND.
 70
     0
  0
ATTRIB
  5
2632
330
261D
100
AcDbEntity
  8
TEXTE
100
AcDbText
 10
29.97470998072612
 20
11.2278962600335
 30
0.0
 40
2.5
  1
 
 41
5.874999999999996
  7
ISOCP
 72
     5
 11
35.84970998072612
 21
11.2278962600335
 31
0.0
100
AcDbAttribute
  2
DAT
 70
     0
  0
ATTRIB
  5
2633
330
261D
100
AcDbEntity
  8
TEXTE
100
AcDbText
 10
42.55640405010382
 20
11.2278962600335
 30
0.0
 40
2.5
  1
 
  7
ISOCP
100
AcDbAttribute
  2
NAME
 70
     0
  0
ATTRIB
  5
2634
330
261D
100
AcDbEntity
  8
TEXTE
100
AcDbText
 10
8.674989437473129
 20
15.56889258289368
 30
0.0
 40
2.5
  1
 
  7
ISOCP
100
AcDbAttribute
  2
ZUST.
 70
     0
  0
ATTRIB
  5
2635
330
261D
100
AcDbEntity
  8
TEXTE
100
AcDbText
 10
16.81928398878085
 20
15.56889258289368
 30
0.0
 40
2.5
  1
 
  7
ISOCP
100
AcDbAttribute
  2
ÄND.
 70
     0
  0
ATTRIB
  5
2636
330
261D
100
AcDbEntity
  8
TEXTE
100
AcDbText
 10
29.97470998072612
 20
15.4778962600335
 30
0.0
 40
2.5
  1
 
 41
5.874999999999996
  7
ISOCP
 72
     5
 11
35.84970998072612
 21
15.4778962600335
 31
0.0
100
AcDbAttribute
  2
DAT
 70
     0
  0
ATTRIB
  5
2637
330
261D
100
AcDbEntity
  8
TEXTE
100
AcDbText
 10
42.55640405010382
 20
15.4778962600335
 30
0.0
 40
2.5
  1
 
  7
ISOCP
100
AcDbAttribute
  2
NAME
 70
     0
  0
ATTRIB
  5
2638
330
261D
100
AcDbEntity
  8
TEXTE
100
AcDbText
 10
8.674989437473129
 20
19.81889258289368
 30
0.0
 40
2.5
  1
 
  7
ISOCP
100
AcDbAttribute
  2
ZUST.
 70
     0
  0
ATTRIB
  5
2639
330
261D
100
AcDbEntity
  8
TEXTE
100
AcDbText
 10
16.81928398878085
 20
19.81889258289368
 30
0.0
 40
2.5
  1
 
  7
ISOCP
100
AcDbAttribute
  2
ÄND.
 70
     0
  0
ATTRIB
  5
263A
330
261D
100
AcDbEntity
  8
TEXTE
100
AcDbText
 10
29.97470998072612
 20
19.7278962600335
 30
0.0
 40
2.5
  1
 
 41
5.874999999999996
  7
ISOCP
 72
     5
 11
35.84970998072612
 21
19.7278962600335
 31
0.0
100
AcDbAttribute
  2
DAT
 70
     0
  0
ATTRIB
  5
263B
330
261D
100
AcDbEntity
  8
TEXTE
100
AcDbText
 10
42.55640405010382
 20
19.7278962600335
 30
0.0
 40
2.5
  1
 
  7
ISOCP
100
AcDbAttribute
  2
NAME
 70
     0
  0
ATTRIB
  5
263C
330
261D
100
AcDbEntity
  8
TEXTE
100
AcDbText
 10
8.674989437473129
 20
24.06889258289368
 30
0.0
 40
2.5
  1
 
  7
ISOCP
100
AcDbAttribute
  2
ZUST.
 70
     0
  0
ATTRIB
  5
263D
330
261D
100
AcDbEntity
  8
TEXTE
100
AcDbText
 10
16.81928398878085
 20
24.06889258289368
 30
0.0
 40
2.5
  1
 
  7
ISOCP
100
AcDbAttribute
  2
ÄND.
 70
     0
  0
ATTRIB
  5
263E
330
261D
100
AcDbEntity
  8
TEXTE
100
AcDbText
 10
29.97470998072612
 20
23.97789626003349
 30
0.0
 40
2.5
  1
 
 41
5.874999999999996
  7
ISOCP
 72
     5
 11
35.84970998072612
 21
23.97789626003349
 31
0.0
100
AcDbAttribute
  2
DAT
 70
     0
  0
ATTRIB
  5
263F
330
261D
100
AcDbEntity
  8
TEXTE
100
AcDbText
 10
42.55640405010382
 20
23.97789626003349
 30
0.0
 40
2.5
  1

  7
ISOCP
100
AcDbAttribute
  2
NAME
 70
     0
  0
ATTRIB
  5
2640
330
261D
100
AcDbEntity
  8
TEXTE
100
AcDbText
 10
8.674989437473129
 20
28.31889258289368
 30
0.0
 40
2.5
  1

  7
ISOCP
100
AcDbAttribute
  2
ZUST.
 70
     0
  0
ATTRIB
  5
2641
330
261D
100
AcDbEntity
  8
TEXTE
100
AcDbText
 10
16.81928398878085
 20
28.31889258289368
 30
0.0
 40
2.5
  1

  7
ISOCP
100
AcDbAttribute
  2
ÄND.
 70
     0
  0
ATTRIB
  5
2642
330
261D
100
AcDbEntity
  8
TEXTE
100
AcDbText
 10
29.97470998072612
 20
28.22789626003351
 30
0.0
 40
2.5
  1

  7
ISOCP
 72
     5
 11
35.84970998072612
 21
28.22789626003351
 31
0.0
100
AcDbAttribute
  2
DAT
 70
     0
  0
ATTRIB
  5
2643
330
261D
100
AcDbEntity
  8
TEXTE
100
AcDbText
 10
42.55640405010382
 20
28.22789626003351
 30
0.0
 40
2.5
  1

  7
ISOCP
100
AcDbAttribute
  2
NAME
 70
     0
  0
ATTRIB
  5
2644
330
261D
100
AcDbEntity
  8
TEXTE
100
AcDbText
 10
8.674989437473129
 20
32.56889258289368
 30
0.0
 40
2.5
  1

  7
ISOCP
100
AcDbAttribute
  2
ZUST.
 70
     0
  0
ATTRIB
  5
2645
330
261D
100
AcDbEntity
  8
TEXTE
100
AcDbText
 10
16.81928398878085
 20
32.56889258289368
 30
0.0
 40
2.5
  1

  7
ISOCP
100
AcDbAttribute
  2
ÄND.
 70
     0
  0
ATTRIB
  5
2646
330
261D
100
AcDbEntity
  8
TEXTE
100
AcDbText
 10
29.97470998072612
 20
32.4778962600335
 30
0.0
 40
2.5
  1

  7
ISOCP
 72
     5
 11
35.84970998072612
 21
32.4778962600335
 31
0.0
100
AcDbAttribute
  2
DAT
 70
     0
  0
ATTRIB
  5
2647
330
261D
100
AcDbEntity
  8
TEXTE
100
AcDbText
 10
42.55640405010382
 20
32.4778962600335
 30
0.0
 40
2.5
  1

  7
ISOCP
100
AcDbAttribute
  2
NAME
 70
     0
  0
ATTRIB
  5
2648
330
261D
100
AcDbEntity
  8
TEXTE
100
AcDbText
 10
8.674989437473129
 20
36.81889258289368
 30
0.0
 40
2.5
  1

  7
ISOCP
100
AcDbAttribute
  2
ZUST.
 70
     0
  0
ATTRIB
  5
2649
330
261D
100
AcDbEntity
  8
TEXTE
100
AcDbText
 10
16.81928398878085
 20
36.81889258289368
 30
0.0
 40
2.5
  1

  7
ISOCP
100
AcDbAttribute
  2
ÄND.
 70
     0
  0
ATTRIB
  5
264A
330
261D
100
AcDbEntity
  8
TEXTE
100
AcDbText
 10
29.97470998072612
 20
36.7278962600335
 30
0.0
 40
2.5
  1

  7
ISOCP
 72
     5
 11
35.84970998072612
 21
36.7278962600335
 31
0.0
100
AcDbAttribute
  2
DAT
 70
     0
  0
ATTRIB
  5
264B
330
261D
100
AcDbEntity
  8
TEXTE
100
AcDbText
 10
42.55640405010382
 20
36.7278962600335
 30
0.0
 40
2.5
  1

  7
ISOCP
100
AcDbAttribute
  2
NAME
 70
     0
  0
ATTRIB
  5
264C
330
261D
100
AcDbEntity
  8
TEXTE
100
AcDbText
 10
8.674989437473129
 20
41.06889258289368
 30
0.0
 40
2.5
  1

  7
ISOCP
100
AcDbAttribute
  2
ZUST.
 70
     0
  0
ATTRIB
  5
264D
330
261D
100
AcDbEntity
  8
TEXTE
100
AcDbText
 10
16.81928398878085
 20
41.06889258289368
 30
0.0
 40
2.5
  1

  7
ISOCP
100
AcDbAttribute
  2
ÄND.
 70
     0
  0
ATTRIB
  5
264E
330
261D
100
AcDbEntity
  8
TEXTE
100
AcDbText
 10
29.97470998072618
 20
40.9778962600335
 30
0.0
 40
2.5
  1

  7
ISOCP
 72
     5
 11
35.84970998072618
 21
40.9778962600335
 31
0.0
100
AcDbAttribute
  2
DAT
 70
     0
  0
ATTRIB
  5
264F
330
261D
100
AcDbEntity
  8
TEXTE
100
AcDbText
 10
42.55640405010382
 20
40.9778962600335
 30
0.0
 40
2.5
  1

  7
ISOCP
100
AcDbAttribute
  2
NAME
 70
     0
  0
ATTRIB
  5
2650
330
261D
100
AcDbEntity
  8
TEXTE
100
AcDbText
 10
8.674989437473129
 20
45.31889258289367
 30
0.0
 40
2.5
  1

  7
ISOCP
100
AcDbAttribute
  2
ZUST.
 70
     0
  0
ATTRIB
  5
2651
330
261D
100
AcDbEntity
  8
TEXTE
100
AcDbText
 10
16.81928398878085
 20
45.31889258289367
 30
0.0
 40
2.5
  1

  7
ISOCP
100
AcDbAttribute
  2
ÄND.
 70
     0
  0
ATTRIB
  5
2652
330
261D
100
AcDbEntity
  8
TEXTE
100
AcDbText
 10
29.97470998072618
 20
45.2278962600335
 30
0.0
 40
2.5
  1

  7
ISOCP
 72
     5
 11
35.84970998072618
 21
45.2278962600335
 31
0.0
100
AcDbAttribute
  2
DAT
 70
     0
  0
ATTRIB
  5
2653
330
261D
100
AcDbEntity
  8
TEXTE
100
AcDbText
 10
42.55640405010382
 20
45.2278962600335
 30
0.0
 40
2.5
  1

  7
ISOCP
100
AcDbAttribute
  2
NAME
 70
     0
  0
ATTRIB
  5
2654
330
261D
100
AcDbEntity
  8
TEXTE
100
AcDbText
 10
8.674989437473129
 20
49.56889258289367
 30
0.0
 40
2.5
  1

  7
ISOCP
100
AcDbAttribute
  2
ZUST.
 70
     0
  0
ATTRIB
  5
2655
330
261D
100
AcDbEntity
  8
TEXTE
100
AcDbText
 10
16.81928398878085
 20
49.56889258289367
 30
0.0
 40
2.5
  1

  7
ISOCP
100
AcDbAttribute
  2
ÄND.
 70
     0
  0
ATTRIB
  5
2656
330
261D
100
AcDbEntity
  8
TEXTE
100
AcDbText
 10
29.97470998072618
 20
49.4778962600335
 30
0.0
 40
2.5
  1

  7
ISOCP
 72
     5
 11
35.84970998072618
 21
49.4778962600335
 31
0.0
100
AcDbAttribute
  2
DAT
 70
     0
  0
ATTRIB
  5
2657
330
261D
100
AcDbEntity
  8
TEXTE
100
AcDbText
 10
42.55640405010382
 20
49.4778962600335
 30
0.0
 40
2.5
  1

  7
ISOCP
100
AcDbAttribute
  2
NAME
 70
     0
  0
ATTRIB
  5
2658
330
261D
100
AcDbEntity
  8
TEXTE
100
AcDbText
 10
8.674989437473129
 20
53.81889258289367
 30
0.0
 40
2.5
  1

  7
ISOCP
100
AcDbAttribute
  2
ZUST.
 70
     0
  0
ATTRIB
  5
2659
330
261D
100
AcDbEntity
  8
TEXTE
100
AcDbText
 10
16.81928398878085
 20
53.81889258289367
 30
0.0
 40
2.5
  1

  7
ISOCP
100
AcDbAttribute
  2
ÄND.
 70
     0
  0
ATTRIB
  5
265A
330
261D
100
AcDbEntity
  8
TEXTE
100
AcDbText
 10
29.97470998072612
 20
53.7278962600335
 30
0.0
 40
2.5
  1

  7
ISOCP
 72
     5
 11
35.84970998072612
 21
53.7278962600335
 31
0.0
100
AcDbAttribute
  2
DAT
 70
     0
  0
ATTRIB
  5
265B
330
261D
100
AcDbEntity
  8
TEXTE
100
AcDbText
 10
42.55640405010382
 20
53.7278962600335
 30
0.0
 40
2.5
  1

  7
ISOCP
100
AcDbAttribute
  2
NAME
 70
     0
  0
ATTRIB
  5
265C
330
261D
100
AcDbEntity
  8
TEXTE
100
AcDbText
 10
8.674989437473129
 20
58.06889258289363
 30
0.0
 40
2.5
  1

  7
ISOCP
100
AcDbAttribute
  2
ZUST.
 70
     0
  0
ATTRIB
  5
265D
330
261D
100
AcDbEntity
  8
TEXTE
100
AcDbText
 10
16.81928398878085
 20
58.06889258289363
 30
0.0
 40
2.5
  1

  7
ISOCP
100
AcDbAttribute
  2
ÄND.
 70
     0
  0
ATTRIB
  5
265E
330
261D
100
AcDbEntity
  8
TEXTE
100
AcDbText
 10
29.97470998072612
 20
57.9778962600335
 30
0.0
 40
2.5
  1

  7
ISOCP
 72
     5
 11
35.84970998072612
 21
57.9778962600335
 31
0.0
100
AcDbAttribute
  2
DAT
 70
     0
  0
ATTRIB
  5
265F
330
261D
100
AcDbEntity
  8
TEXTE
100
AcDbText
 10
42.55640405010382
 20
57.9778962600335
 30
0.0
 40
2.5
  1

  7
ISOCP
100
AcDbAttribute
  2
NAME
 70
     0
  0
SEQEND
  5
2660
330
261D
100
AcDbEntity
  8
OBJEKT
  0
LINE
  5
2661
330
2588
100
AcDbEntity
  8
OBJEKT
100
AcDbLine
 10
194.7175057884606
 20
276.000216251558
 30
0.0
 11
7.517505788460597
 21
276.000216251558
 31
0.0
  0
LINE
  5
2662
330
2588
100
AcDbEntity
  8
OBJEKT
100
AcDbLine
 10
194.7175057884606
 20
6.000216251557956
 30
0.0
 11
7.517505788460597
 21
6.000216251557956
 31
0.0
  0
VIEWPORT
  5
2663
330
2588
100
AcDbEntity
  8
OBJEKT
100
AcDbViewport
 10
101.1175057884606
 20
141.0002162515579
 30
0.0
 40
187.2
 41
270.0
 69
     0
 12
6.842520586879571
 22
-59.68048176154715
 13
0.0
 23
0.0
 14
10.0
 24
10.0
 15
10.0
 25
10.0
 16
0.0
 26
0.0
 36
1.0
 17
0.0
 27
0.0
 37
0.0
 42
50.0
 43
0.0
 44
0.0
 45
269.9999999723559
 50
0.0
 51
0.0
 72
   100
 90
   163872
  1

281
     0
 71
     1
 74
     0
110
0.0
120
0.0
130
0.0
111
1.0
121
0.0
131
0.0
112
0.0
122
1.0
132
0.0
 79
     0
146
0.0
170
     0
  0
LINE
  5
2664
330
2588
100
AcDbEntity
  8
OBJEKT
100
AcDbLine
 10
7.517505788460597
 20
6.000216251557956
 30
0.0
 11
7.517505788460597
 21
274.000216251558
 31
0.0
  0
LINE
  5
2665
330
2588
100
AcDbEntity
  8
OBJEKT
100
AcDbLine
 10
194.7175057884606
 20
6.000216251557956
 30
0.0
 11
194.7175057884605
 21
274.0002162515581
 31
0.0
  0
VIEWPORT
  5
2755
330
2588
100
AcDbEntity
  8
Ansichtsfenster
100
AcDbViewport
 10
101.1175057884606
 20
191.1230450920002
 30
0.0
 40
187.2
 41
169.7543423191154
 69
     0
 12
9.743693412895991
 22
-3.745714603259886
 13
0.0
 23
0.0
 14
10.0
 24
10.0
 15
10.0
 25
10.0
 16
0.0
 26
0.0
 36
1.0
 17
0.0
 27
0.0
 37
0.0
 42
50.0
 43
0.0
 44
0.0
 45
169.7543428937516
 50
0.0
 51
0.0
 72
   100
 90
    32800
  1

281
     0
 71
     1
 74
     0
110
0.0
120
0.0
130
0.0
111
1.0
121
0.0
131
0.0
112
0.0
122
1.0
132
0.0
 79
     0
146
0.0
170
     0
  0
LINE
  5
2933
330
2588
100
AcDbEntity
  8
OBJEKT
100
AcDbLine
 10
150.3091687168215
 20
106.2458739324425
 30
0.0
 11
194.7175057884606
 21
106.2458739324425
 31
0.0
  0
ENDBLK
  5
258B
330
2588
100
AcDbEntity
  8
0
100
AcDbBlockEnd
  0
BLOCK
  5
24AB
330
24A7
100
AcDbEntity
  8
0
100
AcDbBlockBegin
  2
oberfläche_nach_1302
 70
     0
 10
0.0
 20
0.0
 30
0.0
  3
oberfläche_nach_1302
  1

  0
TEXT
  5
24A8
330
24A7
100
AcDbEntity
  8
5-BEM
100
AcDbText
 10
5.536096684105373
 20
11.93918267525639
 30
0.0
 40
2.5
  1
Oberflächen
  7
ISOCP
100
AcDbText
1001
ACAD
1000
MTEXTBEGIN
1070
    73
1070
     1
1070
    44
1040
1.0
1070
    74
1070
     0
1000
MTEXTEND
1000
MTEXTBEGIN
1070
    73
1070
     1
1070
    44
1040
1.0
1070
    74
1070
     0
1000
MTEXTEND
1000
MTEXTBEGIN
1070
    73
1070
     1
1070
    44
1040
1.0
1070
    74
1070
     0
1000
MTEXTEND
1000
MTEXTBEGIN
1070
    73
1070
     1
1070
    44
1040
1.0
1070
    74
1070
     0
1000
MTEXTEND
  0
TEXT
  5
24A9
330
24A7
100
AcDbEntity
  8
5-BEM
100
AcDbText
 10
10.88633250976433
 20
7.772516008589718
 30
0.0
 40
2.5
  1
nach
  7
ISOCP
100
AcDbText
1001
ACAD
1000
MTEXTBEGIN
1070
    73
1070
     1
1070
    44
1040
1.0
1070
    74
1070
     0
1000
MTEXTEND
1000
MTEXTBEGIN
1070
    73
1070
     1
1070
    44
1040
1.0
1070
    74
1070
     0
1000
MTEXTEND
1000
MTEXTBEGIN
1070
    73
1070
     1
1070
    44
1040
1.0
1070
    74
1070
     0
1000
MTEXTEND
1000
MTEXTBEGIN
1070
    73
1070
     1
1070
    44
1040
1.0
1070
    74
1070
     0
1000
MTEXTEND
  0
TEXT
  5
24AA
330
24A7
100
AcDbEntity
  8
5-BEM
100
AcDbText
 10
8.161227461750215
 20
3.605849341923046
 30
0.0
 40
2.5
  1
ISO 1302
  7
ISOCP
100
AcDbText
1001
ACAD
1000
MTEXTBEGIN
1070
    73
1070
     1
1070
    44
1040
1.0
1070
    74
1070
     0
1000
MTEXTEND
1000
MTEXTBEGIN
1070
    73
1070
     1
1070
    44
1040
1.0
1070
    74
1070
     0
1000
MTEXTEND
1000
MTEXTBEGIN
1070
    73
1070
     1
1070
    44
1040
1.0
1070
    74
1070
     0
1000
MTEXTEND
1000
MTEXTBEGIN
1070
    73
1070
     1
1070
    44
1040
1.0
1070
    74
1070
     0
1000
MTEXTEND
  0
ENDBLK
  5
24AC
330
24A7
100
AcDbEntity
  8
0
100
AcDbBlockEnd
  0
BLOCK
  5
24B2
330
24AE
100
AcDbEntity
  8
0
100
AcDbBlockBegin
  2
Allgemeintoleranzen1
 70
     2
 10
0.0
 20
0.0
 30
0.0
  3
Allgemeintoleranzen1
  1

  0
TEXT
  5
24AF
330
24AE
100
AcDbEntity
  8
TEXTE
100
AcDbText
 10
3.708796159061023
 20
4.904317726805841
 30
0.0
 40
2.5
  1

  7
ISOCP
100
AcDbText
  0
TEXT
  5
24B0
330
24AE
100
AcDbEntity
  8
TEXTE
100
AcDbText
 10
3.708796159061023
 20
8.836505930480186
 30
0.0
 40
2.5
  1
Allgemeintoleranzen
  7
ISOCP
100
AcDbText
  0
ATTDEF
  5
24B1
330
24AE
100
AcDbEntity
  8
TEXTE
100
AcDbText
 10
9.739745867903195
 20
4.905944648027598
 30
0.0
 40
2.5
  1

  7
ISOCP
100
AcDbAttributeDefinition
  3

  2
ALGEMEINT.
 70
     0
  0
ENDBLK
  5
24B3
330
24AE
100
AcDbEntity
  8
0
100
AcDbBlockEnd
  0
BLOCK
  5
24E1
330
24DA
100
AcDbEntity
  8
0
100
AcDbBlockBegin
  2
A3ra
 70
     0
 10
0.0
 20
0.0
 30
0.0
  3
A3ra
  1

  0
LINE
  5
24DB
330
24DA
100
AcDbEntity
  8
WERKSKANTEN
100
AcDbLine
 10
395.0
 20
-2.085507088176655
 30
0.0
 11
395.0
 21
274.9144929118234
 31
0.0
  0
LINE
  5
24DC
330
24DA
100
AcDbEntity
  8
WERKSKANTEN
100
AcDbLine
 10
7.0
 20
274.9144929118234
 30
0.0
 11
395.0
 21
274.9144929118234
 31
0.0
  0
LINE
  5
24DD
330
24DA
100
AcDbEntity
  8
WERKSKANTEN
100
AcDbLine
 10
7.0
 20
-2.085507088176655
 30
0.0
 11
395.0
 21
-2.085507088176655
 31
0.0
  0
LINE
  5
24DE
330
24DA
100
AcDbEntity
  8
WERKSKANTEN
100
AcDbLine
 10
7.0
 20
-2.085507088176655
 30
0.0
 11
7.0
 21
274.9144929118234
 31
0.0
  0
LINE
  5
24DF
330
24DA
100
AcDbEntity
  8
WERKSKANTEN
100
AcDbLine
 10
0.0
 20
-4.17101417635331
 30
0.0
 11
0.0
 21
0.0
 31
0.0
  0
LINE
  5
24E0
330
24DA
100
AcDbEntity
  8
WERKSKANTEN
100
AcDbLine
 10
2.327386164632115
 20
-2.085507088176655
 30
0.0
 11
-2.256941670683771
 21
-2.085507088176655
 31
0.0
  0
ENDBLK
  5
24E2
330
24DA
100
AcDbEntity
  8
0
100
AcDbBlockEnd
  0
BLOCK
  5
258E
330
258C
100
AcDbEntity
  8
0
100
AcDbBlockBegin
  2
*Paper_Space8
 70
     0
 10
0.0
 20
0.0
 30
0.0
  3
*Paper_Space8
  1

  0
VIEWPORT
  5
266A
330
258C
100
AcDbEntity
  8
0
100
AcDbViewport
 10
170.5991468072002
 20
160.9262378976385
 30
0.0
 40
791.2916763332717
 41
540.0666449676998
 69
     0
 12
170.5991468072002
 22
160.9262378976385
 13
0.0
 23
0.0
 14
10.0
 24
10.0
 15
10.0
 25
10.0
 16
0.0
 26
0.0
 36
1.0
 17
0.0
 27
0.0
 37
0.0
 42
50.0
 43
0.0
 44
0.0
 45
540.0666449676998
 50
0.0
 51
0.0
 72
   100
 90
    32800
  1

281
     0
 71
     1
 74
     0
110
0.0
120
0.0
130
0.0
111
1.0
121
0.0
131
0.0
112
0.0
122
1.0
132
0.0
 79
     0
146
0.0
170
     0
  0
VIEWPORT
  5
26F3
330
258C
100
AcDbEntity
  8
5
100
AcDbViewport
 10
208.614211115104
 20
143.1705316412525
 30
0.0
 40
388.0
 41
277.0
 69
     0
 12
70.96039267584387
 22
-35.1351936953775
 13
0.0
 23
0.0
 14
10.0
 24
10.0
 15
10.0
 25
10.0
 16
0.0
 26
0.0
 36
1.0
 17
0.0
 27
0.0
 37
0.0
 42
50.0
 43
0.0
 44
0.0
 45
276.9999999561274
 50
0.0
 51
0.0
 72
   100
 90
   163872
  1

281
     0
 71
     1
 74
     0
110
0.0
120
0.0
130
0.0
111
1.0
121
0.0
131
0.0
112
0.0
122
1.0
132
0.0
 79
     0
146
0.0
170
     0
  0
LINE
  5
26F4
330
258C
100
AcDbEntity
  8
WERKSKANTEN
100
AcDbLine
 10
14.61421111510401
 20
4.670531641252523
 30
0.0
 11
402.614211115104
 21
4.670531641252523
 31
0.0
  0
LINE
  5
26F5
330
258C
100
AcDbEntity
  8
WERKSKANTEN
100
AcDbLine
 10
14.61421111510401
 20
281.6705316412525
 30
0.0
 11
402.614211115104
 21
281.6705316412525
 31
0.0
  0
LINE
  5
26F6
330
258C
100
AcDbEntity
  8
WERKSKANTEN
100
AcDbLine
 10
14.61421111510401
 20
4.670531641252523
 30
0.0
 11
14.61421111510401
 21
281.6705316412525
 31
0.0
  0
LINE
  5
26F7
330
258C
100
AcDbEntity
  8
WERKSKANTEN
100
AcDbLine
 10
402.614211115104
 20
4.670531641252523
 30
0.0
 11
402.614211115104
 21
281.6705316412525
 31
0.0
  0
INSERT
  5
26F8
330
258C
100
AcDbEntity
  8
OBJEKT
100
AcDbBlockReference
 66
     1
  2
schriftfeld-31.01.02
 10
402.614211115104
 20
4.670531641252523
 30
0.0
  0
ATTRIB
  5
26F9
330
26F8
100
AcDbEntity
  8
TEXTE
 62
     6
370
    35
100
AcDbText
 10
359.5101853154454
 20
32.08900322367743
 30
0.0
 40
3.5
  1
.
  7
ISOCP
 72
     1
 11
360.0351853154454
 21
32.08900322367743
 31
0.0
100
AcDbAttribute
  2
BENENNUNG
 70
     0
  0
ATTRIB
  5
26FA
330
26F8
100
AcDbEntity
  8
TEXTE
100
AcDbText
 10
320.7262778411692
 20
21.19590272589392
 30
0.0
 40
3.5
  1
3
  7
ISOCP
100
AcDbAttribute
  2
A?
 70
     0
  0
ATTRIB
  5
26FB
330
26F8
100
AcDbEntity
  8
TEXTE
 62
     6
370
    35
100
AcDbText
 10
357.9202931525833
 20
21.28365176116404
 30
0.0
 40
3.5
  1
.
  7
ISOCP
 72
     1
 11
358.4452931525833
 21
21.28365176116404
 31
0.0
100
AcDbAttribute
  2
ZNR
 70
     0
  0
ATTRIB
  5
26FC
330
26F8
100
AcDbEntity
  8
TEXTE
100
AcDbText
 10
316.9019674747409
 20
13.80733993755291
 30
0.0
 40
3.5
  1
                     
 41
2.915382436747046
  7
ISOCP
 72
     5
 11
402.614211115104
 21
13.80733993755291
 31
0.0
100
AcDbAttribute
  2
KL.NR.
 70
     0
  0
ATTRIB
  5
26FD
330
26F8
100
AcDbEntity
  8
TEXTE
100
AcDbText
 10
272.5716947641165
 20
22.73920797258825
 30
0.0
 40
2.5
  1
.
  7
ISOCP
100
AcDbAttribute
  2
CADDAT
 70
     0
  0
ATTRIB
  5
26FE
330
26F8
100
AcDbEntity
  8
TEXTE
100
AcDbText
 10
288.122212378532
 20
22.73920797258825
 30
0.0
 40
2.5
  1
.
  7
ISOCP
100
AcDbAttribute
  2
BEARBNAME
 70
     0
  0
ATTRIB
  5
26FF
330
26F8
100
AcDbEntity
  8
TEXTE
100
AcDbText
 10
272.5716947641166
 20
35.48920797258825
 30
0.0
 40
2.5
  1
.
  7
ISOCP
100
AcDbAttribute
  2
BEARBDAT
 70
     0
  0
ATTRIB
  5
2700
330
26F8
100
AcDbEntity
  8
TEXTE
100
AcDbText
 10
288.122212378532
 20
35.48920797258825
 30
0.0
 40
2.5
  1
.
  7
ISOCP
100
AcDbAttribute
  2
BEARBNAME
 70
     0
  0
ATTRIB
  5
2701
330
26F8
100
AcDbEntity
  8
TEXTE
100
AcDbText
 10
272.5716947641166
 20
31.23920797258825
 30
0.0
 40
2.5
  1
 
  7
ISOCP
100
AcDbAttribute
  2
GEPR-DAT
 70
     0
  0
ATTRIB
  5
2702
330
26F8
100
AcDbEntity
  8
TEXTE
100
AcDbText
 10
288.122212378532
 20
31.23920797258825
 30
0.0
 40
2.5
  1

  7
ISOCP
100
AcDbAttribute
  2
GEPÜNAME
 70
     0
  0
ATTRIB
  5
2703
330
26F8
100
AcDbEntity
  8
TEXTE
100
AcDbText
 10
272.5716947641165
 20
26.98920797258825
 30
0.0
 40
2.5
  1

  7
ISOCP
100
AcDbAttribute
  2
NORMBDAT
 70
     0
  0
ATTRIB
  5
2704
330
26F8
100
AcDbEntity
  8
TEXTE
100
AcDbText
 10
288.122212378532
 20
26.98920797258825
 30
0.0
 40
2.5
  1
 
  7
ISOCP
100
AcDbAttribute
  2
BEARBNAME
 70
     0
  0
ATTRIB
  5
2705
330
26F8
100
AcDbEntity
  8
TEXTE
100
AcDbText
 10
295.7787637086901
 20
69.48920797258819
 30
0.0
 40
2.5
  1
.
  7
ISOCP
 72
     1
 11
296.1537637086901
 21
69.48920797258819
 31
0.0
100
AcDbAttribute
  2
MAßSTAB1
 70
     0
  0
ATTRIB
  5
2706
330
26F8
100
AcDbEntity
  8
TEXTE
100
AcDbText
 10
295.9941993610659
 20
65.23920797258819
 30
0.0
 40
2.5
  1
 
  7
ISOCP
 72
     1
 11
296.4941993610659
 21
65.23920797258819
 31
0.0
100
AcDbAttribute
  2
MAßSTAB2
 70
     0
  0
ATTRIB
  5
2707
330
26F8
100
AcDbEntity
  8
TEXTE
100
AcDbText
 10
295.9941993610659
 20
60.98920797258818
 30
0.0
 40
2.5
  1
 
  7
ISOCP
 72
     1
 11
296.4941993610659
 21
60.98920797258818
 31
0.0
100
AcDbAttribute
  2
MAßSTAB3
 70
     0
  0
ATTRIB
  5
2708
330
26F8
100
AcDbEntity
  8
TEXTE
100
AcDbText
 10
272.5716947641166
 20
5.739207972588245
 30
0.0
 40
2.5
  1
.
  7
ISOCP
100
AcDbAttribute
  2
URSPRUNG
 70
     0
  0
ATTRIB
  5
2709
330
26F8
100
AcDbEntity
  8
TEXTE
100
AcDbText
 10
316.7716947641166
 20
5.739207972588245
 30
0.0
 40
2.5
  1
.
  7
ISOCP
100
AcDbAttribute
  2
ERSETZTFÜR
 70
     0
  0
ATTRIB
  5
270A
330
26F8
100
AcDbEntity
  8
TEXTE
100
AcDbText
 10
365.4716947641166
 20
5.739207972588189
 30
0.0
 40
2.5
  1
.
  7
ISOCP
100
AcDbAttribute
  2
ERSTELLTFÜR
 70
     0
  0
ATTRIB
  5
270B
330
26F8
100
AcDbEntity
  8
TEXTE
100
AcDbText
 10
216.5716947641166
 20
9.989207972588244
 30
0.0
 40
2.5
  1
 
  7
ISOCP
100
AcDbAttribute
  2
ZUST.
 70
     0
  0
ATTRIB
  5
270C
330
26F8
100
AcDbEntity
  8
TEXTE
100
AcDbText
 10
224.7159893154243
 20
9.989207972588244
 30
0.0
 40
2.5
  1
 
  7
ISOCP
100
AcDbAttribute
  2
ÄND.
 70
     0
  0
ATTRIB
  5
270D
330
26F8
100
AcDbEntity
  8
TEXTE
100
AcDbText
 10
237.8714153073695
 20
9.898211649728068
 30
0.0
 40
2.5
  1
 
 41
5.875
  7
ISOCP
 72
     5
 11
243.7464153073695
 21
9.898211649728068
 31
0.0
100
AcDbAttribute
  2
DAT
 70
     0
  0
ATTRIB
  5
270E
330
26F8
100
AcDbEntity
  8
TEXTE
100
AcDbText
 10
250.4531093767472
 20
9.898211649728068
 30
0.0
 40
2.5
  1
 
  7
ISOCP
100
AcDbAttribute
  2
NAME
 70
     0
  0
ATTRIB
  5
270F
330
26F8
100
AcDbEntity
  8
TEXTE
100
AcDbText
 10
216.5716947641166
 20
14.23920797258825
 30
0.0
 40
2.5
  1
 
  7
ISOCP
100
AcDbAttribute
  2
ZUST.
 70
     0
  0
ATTRIB
  5
2710
330
26F8
100
AcDbEntity
  8
TEXTE
100
AcDbText
 10
224.7159893154243
 20
14.23920797258825
 30
0.0
 40
2.5
  1
 
  7
ISOCP
100
AcDbAttribute
  2
ÄND.
 70
     0
  0
ATTRIB
  5
2711
330
26F8
100
AcDbEntity
  8
TEXTE
100
AcDbText
 10
237.8714153073695
 20
14.14821164972807
 30
0.0
 40
2.5
  1
 
 41
5.875
  7
ISOCP
 72
     5
 11
243.7464153073695
 21
14.14821164972807
 31
0.0
100
AcDbAttribute
  2
DAT
 70
     0
  0
ATTRIB
  5
2712
330
26F8
100
AcDbEntity
  8
TEXTE
100
AcDbText
 10
250.4531093767472
 20
14.14821164972807
 30
0.0
 40
2.5
  1
 
  7
ISOCP
100
AcDbAttribute
  2
NAME
 70
     0
  0
ATTRIB
  5
2713
330
26F8
100
AcDbEntity
  8
TEXTE
100
AcDbText
 10
216.5716947641166
 20
18.48920797258825
 30
0.0
 40
2.5
  1
 
  7
ISOCP
100
AcDbAttribute
  2
ZUST.
 70
     0
  0
ATTRIB
  5
2714
330
26F8
100
AcDbEntity
  8
TEXTE
100
AcDbText
 10
224.7159893154243
 20
18.48920797258825
 30
0.0
 40
2.5
  1
 
  7
ISOCP
100
AcDbAttribute
  2
ÄND.
 70
     0
  0
ATTRIB
  5
2715
330
26F8
100
AcDbEntity
  8
TEXTE
100
AcDbText
 10
237.8714153073695
 20
18.39821164972807
 30
0.0
 40
2.5
  1
 
 41
5.875
  7
ISOCP
 72
     5
 11
243.7464153073695
 21
18.39821164972807
 31
0.0
100
AcDbAttribute
  2
DAT
 70
     0
  0
ATTRIB
  5
2716
330
26F8
100
AcDbEntity
  8
TEXTE
100
AcDbText
 10
250.4531093767472
 20
18.39821164972807
 30
0.0
 40
2.5
  1
 
  7
ISOCP
100
AcDbAttribute
  2
NAME
 70
     0
  0
ATTRIB
  5
2717
330
26F8
100
AcDbEntity
  8
TEXTE
100
AcDbText
 10
216.5716947641166
 20
22.73920797258825
 30
0.0
 40
2.5
  1
 
  7
ISOCP
100
AcDbAttribute
  2
ZUST.
 70
     0
  0
ATTRIB
  5
2718
330
26F8
100
AcDbEntity
  8
TEXTE
100
AcDbText
 10
224.7159893154243
 20
22.73920797258825
 30
0.0
 40
2.5
  1
 
  7
ISOCP
100
AcDbAttribute
  2
ÄND.
 70
     0
  0
ATTRIB
  5
2719
330
26F8
100
AcDbEntity
  8
TEXTE
100
AcDbText
 10
237.8714153073695
 20
22.64821164972807
 30
0.0
 40
2.5
  1
 
 41
5.875
  7
ISOCP
 72
     5
 11
243.7464153073695
 21
22.64821164972807
 31
0.0
100
AcDbAttribute
  2
DAT
 70
     0
  0
ATTRIB
  5
271A
330
26F8
100
AcDbEntity
  8
TEXTE
100
AcDbText
 10
250.4531093767472
 20
22.64821164972807
 30
0.0
 40
2.5
  1

  7
ISOCP
100
AcDbAttribute
  2
NAME
 70
     0
  0
ATTRIB
  5
271B
330
26F8
100
AcDbEntity
  8
TEXTE
100
AcDbText
 10
216.5716947641166
 20
26.98920797258825
 30
0.0
 40
2.5
  1

  7
ISOCP
100
AcDbAttribute
  2
ZUST.
 70
     0
  0
ATTRIB
  5
271C
330
26F8
100
AcDbEntity
  8
TEXTE
100
AcDbText
 10
224.7159893154243
 20
26.98920797258825
 30
0.0
 40
2.5
  1

  7
ISOCP
100
AcDbAttribute
  2
ÄND.
 70
     0
  0
ATTRIB
  5
271D
330
26F8
100
AcDbEntity
  8
TEXTE
100
AcDbText
 10
237.8714153073695
 20
26.89821164972807
 30
0.0
 40
2.5
  1

  7
ISOCP
 72
     5
 11
243.7464153073695
 21
26.89821164972807
 31
0.0
100
AcDbAttribute
  2
DAT
 70
     0
  0
ATTRIB
  5
271E
330
26F8
100
AcDbEntity
  8
TEXTE
100
AcDbText
 10
250.4531093767472
 20
26.89821164972807
 30
0.0
 40
2.5
  1

  7
ISOCP
100
AcDbAttribute
  2
NAME
 70
     0
  0
ATTRIB
  5
271F
330
26F8
100
AcDbEntity
  8
TEXTE
100
AcDbText
 10
216.5716947641166
 20
31.23920797258825
 30
0.0
 40
2.5
  1

  7
ISOCP
100
AcDbAttribute
  2
ZUST.
 70
     0
  0
ATTRIB
  5
2720
330
26F8
100
AcDbEntity
  8
TEXTE
100
AcDbText
 10
224.7159893154243
 20
31.23920797258825
 30
0.0
 40
2.5
  1

  7
ISOCP
100
AcDbAttribute
  2
ÄND.
 70
     0
  0
ATTRIB
  5
2721
330
26F8
100
AcDbEntity
  8
TEXTE
100
AcDbText
 10
237.8714153073695
 20
31.14821164972807
 30
0.0
 40
2.5
  1

  7
ISOCP
 72
     5
 11
243.7464153073695
 21
31.14821164972807
 31
0.0
100
AcDbAttribute
  2
DAT
 70
     0
  0
ATTRIB
  5
2722
330
26F8
100
AcDbEntity
  8
TEXTE
100
AcDbText
 10
250.4531093767472
 20
31.14821164972807
 30
0.0
 40
2.5
  1

  7
ISOCP
100
AcDbAttribute
  2
NAME
 70
     0
  0
ATTRIB
  5
2723
330
26F8
100
AcDbEntity
  8
TEXTE
100
AcDbText
 10
216.5716947641166
 20
35.48920797258825
 30
0.0
 40
2.5
  1

  7
ISOCP
100
AcDbAttribute
  2
ZUST.
 70
     0
  0
ATTRIB
  5
2724
330
26F8
100
AcDbEntity
  8
TEXTE
100
AcDbText
 10
224.7159893154243
 20
35.48920797258825
 30
0.0
 40
2.5
  1

  7
ISOCP
100
AcDbAttribute
  2
ÄND.
 70
     0
  0
ATTRIB
  5
2725
330
26F8
100
AcDbEntity
  8
TEXTE
100
AcDbText
 10
237.8714153073695
 20
35.39821164972807
 30
0.0
 40
2.5
  1

  7
ISOCP
 72
     5
 11
243.7464153073695
 21
35.39821164972807
 31
0.0
100
AcDbAttribute
  2
DAT
 70
     0
  0
ATTRIB
  5
2726
330
26F8
100
AcDbEntity
  8
TEXTE
100
AcDbText
 10
250.4531093767472
 20
35.39821164972807
 30
0.0
 40
2.5
  1

  7
ISOCP
100
AcDbAttribute
  2
NAME
 70
     0
  0
ATTRIB
  5
2727
330
26F8
100
AcDbEntity
  8
TEXTE
100
AcDbText
 10
216.5716947641166
 20
39.73920797258825
 30
0.0
 40
2.5
  1

  7
ISOCP
100
AcDbAttribute
  2
ZUST.
 70
     0
  0
ATTRIB
  5
2728
330
26F8
100
AcDbEntity
  8
TEXTE
100
AcDbText
 10
224.7159893154243
 20
39.73920797258825
 30
0.0
 40
2.5
  1

  7
ISOCP
100
AcDbAttribute
  2
ÄND.
 70
     0
  0
ATTRIB
  5
2729
330
26F8
100
AcDbEntity
  8
TEXTE
100
AcDbText
 10
237.8714153073696
 20
39.64821164972807
 30
0.0
 40
2.5
  1

  7
ISOCP
 72
     5
 11
243.7464153073696
 21
39.64821164972807
 31
0.0
100
AcDbAttribute
  2
DAT
 70
     0
  0
ATTRIB
  5
272A
330
26F8
100
AcDbEntity
  8
TEXTE
100
AcDbText
 10
250.4531093767472
 20
39.64821164972807
 30
0.0
 40
2.5
  1

  7
ISOCP
100
AcDbAttribute
  2
NAME
 70
     0
  0
ATTRIB
  5
272B
330
26F8
100
AcDbEntity
  8
TEXTE
100
AcDbText
 10
216.5716947641166
 20
43.98920797258824
 30
0.0
 40
2.5
  1

  7
ISOCP
100
AcDbAttribute
  2
ZUST.
 70
     0
  0
ATTRIB
  5
272C
330
26F8
100
AcDbEntity
  8
TEXTE
100
AcDbText
 10
224.7159893154243
 20
43.98920797258824
 30
0.0
 40
2.5
  1

  7
ISOCP
100
AcDbAttribute
  2
ÄND.
 70
     0
  0
ATTRIB
  5
272D
330
26F8
100
AcDbEntity
  8
TEXTE
100
AcDbText
 10
237.8714153073696
 20
43.89821164972807
 30
0.0
 40
2.5
  1

  7
ISOCP
 72
     5
 11
243.7464153073696
 21
43.89821164972807
 31
0.0
100
AcDbAttribute
  2
DAT
 70
     0
  0
ATTRIB
  5
272E
330
26F8
100
AcDbEntity
  8
TEXTE
100
AcDbText
 10
250.4531093767472
 20
43.89821164972807
 30
0.0
 40
2.5
  1

  7
ISOCP
100
AcDbAttribute
  2
NAME
 70
     0
  0
ATTRIB
  5
272F
330
26F8
100
AcDbEntity
  8
TEXTE
100
AcDbText
 10
216.5716947641166
 20
48.23920797258825
 30
0.0
 40
2.5
  1

  7
ISOCP
100
AcDbAttribute
  2
ZUST.
 70
     0
  0
ATTRIB
  5
2730
330
26F8
100
AcDbEntity
  8
TEXTE
100
AcDbText
 10
224.7159893154243
 20
48.23920797258825
 30
0.0
 40
2.5
  1

  7
ISOCP
100
AcDbAttribute
  2
ÄND.
 70
     0
  0
ATTRIB
  5
2731
330
26F8
100
AcDbEntity
  8
TEXTE
100
AcDbText
 10
237.8714153073696
 20
48.14821164972807
 30
0.0
 40
2.5
  1

  7
ISOCP
 72
     5
 11
243.7464153073696
 21
48.14821164972807
 31
0.0
100
AcDbAttribute
  2
DAT
 70
     0
  0
ATTRIB
  5
2732
330
26F8
100
AcDbEntity
  8
TEXTE
100
AcDbText
 10
250.4531093767472
 20
48.14821164972807
 30
0.0
 40
2.5
  1

  7
ISOCP
100
AcDbAttribute
  2
NAME
 70
     0
  0
ATTRIB
  5
2733
330
26F8
100
AcDbEntity
  8
TEXTE
100
AcDbText
 10
216.5716947641166
 20
52.48920797258826
 30
0.0
 40
2.5
  1

  7
ISOCP
100
AcDbAttribute
  2
ZUST.
 70
     0
  0
ATTRIB
  5
2734
330
26F8
100
AcDbEntity
  8
TEXTE
100
AcDbText
 10
224.7159893154243
 20
52.48920797258826
 30
0.0
 40
2.5
  1

  7
ISOCP
100
AcDbAttribute
  2
ÄND.
 70
     0
  0
ATTRIB
  5
2735
330
26F8
100
AcDbEntity
  8
TEXTE
100
AcDbText
 10
237.8714153073695
 20
52.39821164972807
 30
0.0
 40
2.5
  1

  7
ISOCP
 72
     5
 11
243.7464153073695
 21
52.39821164972807
 31
0.0
100
AcDbAttribute
  2
DAT
 70
     0
  0
ATTRIB
  5
2736
330
26F8
100
AcDbEntity
  8
TEXTE
100
AcDbText
 10
250.4531093767472
 20
52.39821164972807
 30
0.0
 40
2.5
  1

  7
ISOCP
100
AcDbAttribute
  2
NAME
 70
     0
  0
ATTRIB
  5
2737
330
26F8
100
AcDbEntity
  8
TEXTE
100
AcDbText
 10
216.5716947641166
 20
56.73920797258818
 30
0.0
 40
2.5
  1

  7
ISOCP
100
AcDbAttribute
  2
ZUST.
 70
     0
  0
ATTRIB
  5
2738
330
26F8
100
AcDbEntity
  8
TEXTE
100
AcDbText
 10
224.7159893154243
 20
56.73920797258818
 30
0.0
 40
2.5
  1

  7
ISOCP
100
AcDbAttribute
  2
ÄND.
 70
     0
  0
ATTRIB
  5
2739
330
26F8
100
AcDbEntity
  8
TEXTE
100
AcDbText
 10
237.8714153073695
 20
56.64821164972806
 30
0.0
 40
2.5
  1

  7
ISOCP
 72
     5
 11
243.7464153073695
 21
56.64821164972806
 31
0.0
100
AcDbAttribute
  2
DAT
 70
     0
  0
ATTRIB
  5
273A
330
26F8
100
AcDbEntity
  8
TEXTE
100
AcDbText
 10
250.4531093767472
 20
56.64821164972806
 30
0.0
 40
2.5
  1

  7
ISOCP
100
AcDbAttribute
  2
NAME
 70
     0
  0
SEQEND
  5
273B
330
26F8
100
AcDbEntity
  8
OBJEKT
  0
INSERT
  5
273C
330
258C
100
AcDbEntity
  8
OBJEKT
100
AcDbBlockReference
  2
Toleranz1000
 10
261.014211115104
 20
42.92053164125255
 30
0.0
  0
LWPOLYLINE
  5
2744
102
{ACAD_REACTORS
330
2746
102
}
330
258C
100
AcDbEntity
  8
Ansichtsfenster
100
AcDbPolyline
 90
        6
 70
     1
 43
0.0
 10
215.414232427059
 20
44.03927730949113
 10
215.414232427059
 20
44.03927730949113
 10
215.414211115104
 20
76.92053164125252
 10
402.614211115104
 20
76.92053164125252
 10
402.614211115104
 20
281.6705316412525
 10
215.414211115104
 20
281.6705316412525
  0
VIEWPORT
  5
2746
330
258C
100
AcDbEntity
  8
Ansichtsfenster
100
AcDbViewport
 10
309.014211115104
 20
162.8549044753718
 30
0.0
 40
187.2
 41
237.6312543317614
 69
     0
 12
-391.2933729694403
 22
478.8060140422905
 13
0.0
 23
0.0
 14
10.0
 24
10.0
 15
10.0
 25
10.0
 16
0.0
 26
0.0
 36
1.0
 17
0.0
 27
0.0
 37
0.0
 42
50.0
 43
0.0
 44
0.0
 45
652.6333539948872
 50
0.0
 51
0.0
 72
   100
331
2499
 90
    98304
340
2744
  1

281
     0
 71
     1
 74
     0
110
0.0
120
0.0
130
0.0
111
1.0
121
0.0
131
0.0
112
0.0
122
1.0
132
0.0
 79
     0
146
0.0
170
     0
  0
VIEWPORT
  5
3C23
330
258C
100
AcDbEntity
  8
Ansichtsfenster
100
AcDbViewport
 10
115.014211115104
 20
170.7955316412525
 30
0.0
 40
200.8
 41
221.75
 69
     0
 12
-440.0922885224181
 22
340.3357678354069
 13
0.0
 23
0.0
 14
10.0
 24
10.0
 15
10.0
 25
10.0
 16
0.0
 26
0.0
 36
1.0
 17
0.0
 27
0.0
 37
0.0
 42
50.0
 43
0.0
 44
0.0
 45
2771.875
 50
0.0
 51
0.0
 72
   100
 90
    32800
  1

281
     0
 71
     1
 74
     0
110
0.0
120
0.0
130
0.0
111
1.0
121
0.0
131
0.0
112
0.0
122
1.0
132
0.0
 79
     0
146
0.0
170
     0
  0
ENDBLK
  5
258F
330
258C
100
AcDbEntity
  8
0
100
AcDbBlockEnd
  0
BLOCK
  5
23BC
330
23BA
100
AcDbEntity
  8
0
100
AcDbBlockBegin
  2
*Paper_Space9
 70
     0
 10
0.0
 20
0.0
 30
0.0
  3
*Paper_Space9
  1

  0
VIEWPORT
  5
23C5
330
23BA
100
AcDbEntity
  8
0
100
AcDbViewport
 10
156.1831739712981
 20
143.412635573135
 30
0.0
 40
584.1921936070438
 41
314.1924854736328
 69
     0
 12
156.1831739712981
 22
143.412635573135
 13
0.0
 23
0.0
 14
10.0
 24
10.0
 15
10.0
 25
10.0
 16
0.0
 26
0.0
 36
1.0
 17
0.0
 27
0.0
 37
0.0
 42
50.0
 43
0.0
 44
0.0
 45
314.1924854736328
 50
0.0
 51
0.0
 72
   100
331
2499
 90
    32800
  1

281
     0
 71
     1
 74
     0
110
0.0
120
0.0
130
0.0
111
1.0
121
0.0
131
0.0
112
0.0
122
1.0
132
0.0
 79
     0
146
0.0
170
     0
  0
INSERT
  5
244F
330
23BA
100
AcDbEntity
  8
OBJEKT
100
AcDbBlockReference
 66
     1
  2
schriftfeld-31.01.02
 10
190.6638876212385
 20
4.828902423817311
 30
0.0
  0
ATTRIB
  5
2450
330
244F
100
AcDbEntity
  8
TEXTE
 62
     6
370
    35
100
AcDbText
 10
147.5598618215799
 20
32.24737400624221
 30
0.0
 40
3.5
  1
.
  7
ISOCP
 72
     1
 11
148.0848618215799
 21
32.24737400624221
 31
0.0
100
AcDbAttribute
  2
BENENNUNG
 70
     0
  0
ATTRIB
  5
2451
330
244F
100
AcDbEntity
  8
TEXTE
100
AcDbText
 10
108.7759543473037
 20
21.3542735084587
 30
0.0
 40
3.5
  1
4
  7
ISOCP
100
AcDbAttribute
  2
A?
 70
     0
  0
ATTRIB
  5
2452
330
244F
100
AcDbEntity
  8
TEXTE
 62
     6
370
    35
100
AcDbText
 10
145.9699696587176
 20
21.44202254372883
 30
0.0
 40
3.5
  1
.
  7
ISOCP
 72
     1
 11
146.4949696587177
 21
21.44202254372883
 31
0.0
100
AcDbAttribute
  2
ZNR
 70
     0
  0
ATTRIB
  5
2453
330
244F
100
AcDbEntity
  8
TEXTE
100
AcDbText
 10
104.9516439808753
 20
13.9657107201177
 30
0.0
 40
3.5
  1
                     
 41
2.915382436747049
  7
ISOCP
 72
     5
 11
190.6638876212385
 21
13.9657107201177
 31
0.0
100
AcDbAttribute
  2
KL.NR.
 70
     0
  0
ATTRIB
  5
2454
330
244F
100
AcDbEntity
  8
TEXTE
100
AcDbText
 10
60.62137127025096
 20
22.89757875515304
 30
0.0
 40
2.5
  1
.
  7
ISOCP
100
AcDbAttribute
  2
CADDAT
 70
     0
  0
ATTRIB
  5
2455
330
244F
100
AcDbEntity
  8
TEXTE
100
AcDbText
 10
76.17188888466649
 20
22.89757875515304
 30
0.0
 40
2.5
  1
.
  7
ISOCP
100
AcDbAttribute
  2
BEARBNAME
 70
     0
  0
ATTRIB
  5
2456
330
244F
100
AcDbEntity
  8
TEXTE
100
AcDbText
 10
60.62137127025103
 20
35.64757875515303
 30
0.0
 40
2.5
  1
.
  7
ISOCP
100
AcDbAttribute
  2
BEARBDAT
 70
     0
  0
ATTRIB
  5
2457
330
244F
100
AcDbEntity
  8
TEXTE
100
AcDbText
 10
76.17188888466649
 20
35.64757875515303
 30
0.0
 40
2.5
  1
.
  7
ISOCP
100
AcDbAttribute
  2
BEARBNAME
 70
     0
  0
ATTRIB
  5
2458
330
244F
100
AcDbEntity
  8
TEXTE
100
AcDbText
 10
60.62137127025103
 20
31.39757875515304
 30
0.0
 40
2.5
  1
 
  7
ISOCP
100
AcDbAttribute
  2
GEPR-DAT
 70
     0
  0
ATTRIB
  5
2459
330
244F
100
AcDbEntity
  8
TEXTE
100
AcDbText
 10
76.17188888466649
 20
31.39757875515304
 30
0.0
 40
2.5
  1

  7
ISOCP
100
AcDbAttribute
  2
GEPÜNAME
 70
     0
  0
ATTRIB
  5
245A
330
244F
100
AcDbEntity
  8
TEXTE
100
AcDbText
 10
60.62137127025096
 20
27.14757875515303
 30
0.0
 40
2.5
  1

  7
ISOCP
100
AcDbAttribute
  2
NORMBDAT
 70
     0
  0
ATTRIB
  5
245B
330
244F
100
AcDbEntity
  8
TEXTE
100
AcDbText
 10
76.17188888466649
 20
27.14757875515303
 30
0.0
 40
2.5
  1
 
  7
ISOCP
100
AcDbAttribute
  2
BEARBNAME
 70
     0
  0
ATTRIB
  5
245C
330
244F
100
AcDbEntity
  8
TEXTE
100
AcDbText
 10
83.82844021482453
 20
69.64757875515298
 30
0.0
 40
2.5
  1
.
  7
ISOCP
 72
     1
 11
84.20344021482454
 21
69.64757875515298
 31
0.0
100
AcDbAttribute
  2
MAßSTAB1
 70
     0
  0
ATTRIB
  5
245D
330
244F
100
AcDbEntity
  8
TEXTE
100
AcDbText
 10
84.04387586720035
 20
65.39757875515298
 30
0.0
 40
2.5
  1
 
  7
ISOCP
 72
     1
 11
84.54387586720036
 21
65.39757875515298
 31
0.0
100
AcDbAttribute
  2
MAßSTAB2
 70
     0
  0
ATTRIB
  5
245E
330
244F
100
AcDbEntity
  8
TEXTE
100
AcDbText
 10
84.04387586720035
 20
61.14757875515298
 30
0.0
 40
2.5
  1
 
  7
ISOCP
 72
     1
 11
84.54387586720036
 21
61.14757875515298
 31
0.0
100
AcDbAttribute
  2
MAßSTAB3
 70
     0
  0
ATTRIB
  5
245F
330
244F
100
AcDbEntity
  8
TEXTE
100
AcDbText
 10
60.62137127025107
 20
5.897578755153033
 30
0.0
 40
2.5
  1
.
  7
ISOCP
100
AcDbAttribute
  2
URSPRUNG
 70
     0
  0
ATTRIB
  5
2460
330
244F
100
AcDbEntity
  8
TEXTE
100
AcDbText
 10
104.821371270251
 20
5.897578755153033
 30
0.0
 40
2.5
  1
.
  7
ISOCP
100
AcDbAttribute
  2
ERSETZTFÜR
 70
     0
  0
ATTRIB
  5
2461
330
244F
100
AcDbEntity
  8
TEXTE
100
AcDbText
 10
153.521371270251
 20
5.897578755152977
 30
0.0
 40
2.5
  1
.
  7
ISOCP
100
AcDbAttribute
  2
ERSTELLTFÜR
 70
     0
  0
ATTRIB
  5
2462
330
244F
100
AcDbEntity
  8
TEXTE
100
AcDbText
 10
4.621371270251017
 20
10.14757875515303
 30
0.0
 40
2.5
  1
 
  7
ISOCP
100
AcDbAttribute
  2
ZUST.
 70
     0
  0
ATTRIB
  5
2463
330
244F
100
AcDbEntity
  8
TEXTE
100
AcDbText
 10
12.76566582155874
 20
10.14757875515303
 30
0.0
 40
2.5
  1
 
  7
ISOCP
100
AcDbAttribute
  2
ÄND.
 70
     0
  0
ATTRIB
  5
2464
330
244F
100
AcDbEntity
  8
TEXTE
100
AcDbText
 10
25.92109181350402
 20
10.05658243229285
 30
0.0
 40
2.5
  1
 
 41
5.875
  7
ISOCP
 72
     5
 11
31.79609181350401
 21
10.05658243229285
 31
0.0
100
AcDbAttribute
  2
DAT
 70
     0
  0
ATTRIB
  5
2465
330
244F
100
AcDbEntity
  8
TEXTE
100
AcDbText
 10
38.50278588288171
 20
10.05658243229285
 30
0.0
 40
2.5
  1
 
  7
ISOCP
100
AcDbAttribute
  2
NAME
 70
     0
  0
ATTRIB
  5
2466
330
244F
100
AcDbEntity
  8
TEXTE
100
AcDbText
 10
4.621371270251017
 20
14.39757875515303
 30
0.0
 40
2.5
  1
 
  7
ISOCP
100
AcDbAttribute
  2
ZUST.
 70
     0
  0
ATTRIB
  5
2467
330
244F
100
AcDbEntity
  8
TEXTE
100
AcDbText
 10
12.76566582155874
 20
14.39757875515303
 30
0.0
 40
2.5
  1
 
  7
ISOCP
100
AcDbAttribute
  2
ÄND.
 70
     0
  0
ATTRIB
  5
2468
330
244F
100
AcDbEntity
  8
TEXTE
100
AcDbText
 10
25.92109181350402
 20
14.30658243229285
 30
0.0
 40
2.5
  1
 
 41
5.875
  7
ISOCP
 72
     5
 11
31.79609181350401
 21
14.30658243229285
 31
0.0
100
AcDbAttribute
  2
DAT
 70
     0
  0
ATTRIB
  5
2469
330
244F
100
AcDbEntity
  8
TEXTE
100
AcDbText
 10
38.50278588288171
 20
14.30658243229285
 30
0.0
 40
2.5
  1
 
  7
ISOCP
100
AcDbAttribute
  2
NAME
 70
     0
  0
ATTRIB
  5
246A
330
244F
100
AcDbEntity
  8
TEXTE
100
AcDbText
 10
4.621371270251017
 20
18.64757875515303
 30
0.0
 40
2.5
  1
 
  7
ISOCP
100
AcDbAttribute
  2
ZUST.
 70
     0
  0
ATTRIB
  5
246B
330
244F
100
AcDbEntity
  8
TEXTE
100
AcDbText
 10
12.76566582155874
 20
18.64757875515303
 30
0.0
 40
2.5
  1
 
  7
ISOCP
100
AcDbAttribute
  2
ÄND.
 70
     0
  0
ATTRIB
  5
246C
330
244F
100
AcDbEntity
  8
TEXTE
100
AcDbText
 10
25.92109181350402
 20
18.55658243229285
 30
0.0
 40
2.5
  1
 
 41
5.875
  7
ISOCP
 72
     5
 11
31.79609181350401
 21
18.55658243229285
 31
0.0
100
AcDbAttribute
  2
DAT
 70
     0
  0
ATTRIB
  5
246D
330
244F
100
AcDbEntity
  8
TEXTE
100
AcDbText
 10
38.50278588288171
 20
18.55658243229285
 30
0.0
 40
2.5
  1
 
  7
ISOCP
100
AcDbAttribute
  2
NAME
 70
     0
  0
ATTRIB
  5
246E
330
244F
100
AcDbEntity
  8
TEXTE
100
AcDbText
 10
4.621371270251017
 20
22.89757875515304
 30
0.0
 40
2.5
  1
 
  7
ISOCP
100
AcDbAttribute
  2
ZUST.
 70
     0
  0
ATTRIB
  5
246F
330
244F
100
AcDbEntity
  8
TEXTE
100
AcDbText
 10
12.76566582155874
 20
22.89757875515304
 30
0.0
 40
2.5
  1
 
  7
ISOCP
100
AcDbAttribute
  2
ÄND.
 70
     0
  0
ATTRIB
  5
2470
330
244F
100
AcDbEntity
  8
TEXTE
100
AcDbText
 10
25.92109181350402
 20
22.80658243229286
 30
0.0
 40
2.5
  1
 
 41
5.875
  7
ISOCP
 72
     5
 11
31.79609181350401
 21
22.80658243229286
 31
0.0
100
AcDbAttribute
  2
DAT
 70
     0
  0
ATTRIB
  5
2471
330
244F
100
AcDbEntity
  8
TEXTE
100
AcDbText
 10
38.50278588288171
 20
22.80658243229286
 30
0.0
 40
2.5
  1

  7
ISOCP
100
AcDbAttribute
  2
NAME
 70
     0
  0
ATTRIB
  5
2472
330
244F
100
AcDbEntity
  8
TEXTE
100
AcDbText
 10
4.621371270251017
 20
27.14757875515303
 30
0.0
 40
2.5
  1

  7
ISOCP
100
AcDbAttribute
  2
ZUST.
 70
     0
  0
ATTRIB
  5
2473
330
244F
100
AcDbEntity
  8
TEXTE
100
AcDbText
 10
12.76566582155874
 20
27.14757875515303
 30
0.0
 40
2.5
  1

  7
ISOCP
100
AcDbAttribute
  2
ÄND.
 70
     0
  0
ATTRIB
  5
2474
330
244F
100
AcDbEntity
  8
TEXTE
100
AcDbText
 10
25.92109181350402
 20
27.05658243229286
 30
0.0
 40
2.5
  1

  7
ISOCP
 72
     5
 11
31.79609181350401
 21
27.05658243229286
 31
0.0
100
AcDbAttribute
  2
DAT
 70
     0
  0
ATTRIB
  5
2475
330
244F
100
AcDbEntity
  8
TEXTE
100
AcDbText
 10
38.50278588288171
 20
27.05658243229286
 30
0.0
 40
2.5
  1

  7
ISOCP
100
AcDbAttribute
  2
NAME
 70
     0
  0
ATTRIB
  5
2476
330
244F
100
AcDbEntity
  8
TEXTE
100
AcDbText
 10
4.621371270251017
 20
31.39757875515304
 30
0.0
 40
2.5
  1

  7
ISOCP
100
AcDbAttribute
  2
ZUST.
 70
     0
  0
ATTRIB
  5
2477
330
244F
100
AcDbEntity
  8
TEXTE
100
AcDbText
 10
12.76566582155874
 20
31.39757875515304
 30
0.0
 40
2.5
  1

  7
ISOCP
100
AcDbAttribute
  2
ÄND.
 70
     0
  0
ATTRIB
  5
2478
330
244F
100
AcDbEntity
  8
TEXTE
100
AcDbText
 10
25.92109181350402
 20
31.30658243229286
 30
0.0
 40
2.5
  1

  7
ISOCP
 72
     5
 11
31.79609181350401
 21
31.30658243229286
 31
0.0
100
AcDbAttribute
  2
DAT
 70
     0
  0
ATTRIB
  5
2479
330
244F
100
AcDbEntity
  8
TEXTE
100
AcDbText
 10
38.50278588288171
 20
31.30658243229286
 30
0.0
 40
2.5
  1

  7
ISOCP
100
AcDbAttribute
  2
NAME
 70
     0
  0
ATTRIB
  5
247A
330
244F
100
AcDbEntity
  8
TEXTE
100
AcDbText
 10
4.621371270251017
 20
35.64757875515303
 30
0.0
 40
2.5
  1

  7
ISOCP
100
AcDbAttribute
  2
ZUST.
 70
     0
  0
ATTRIB
  5
247B
330
244F
100
AcDbEntity
  8
TEXTE
100
AcDbText
 10
12.76566582155874
 20
35.64757875515303
 30
0.0
 40
2.5
  1

  7
ISOCP
100
AcDbAttribute
  2
ÄND.
 70
     0
  0
ATTRIB
  5
247C
330
244F
100
AcDbEntity
  8
TEXTE
100
AcDbText
 10
25.92109181350402
 20
35.55658243229286
 30
0.0
 40
2.5
  1

  7
ISOCP
 72
     5
 11
31.79609181350401
 21
35.55658243229286
 31
0.0
100
AcDbAttribute
  2
DAT
 70
     0
  0
ATTRIB
  5
247D
330
244F
100
AcDbEntity
  8
TEXTE
100
AcDbText
 10
38.50278588288171
 20
35.55658243229286
 30
0.0
 40
2.5
  1

  7
ISOCP
100
AcDbAttribute
  2
NAME
 70
     0
  0
ATTRIB
  5
247E
330
244F
100
AcDbEntity
  8
TEXTE
100
AcDbText
 10
4.621371270251017
 20
39.89757875515304
 30
0.0
 40
2.5
  1

  7
ISOCP
100
AcDbAttribute
  2
ZUST.
 70
     0
  0
ATTRIB
  5
247F
330
244F
100
AcDbEntity
  8
TEXTE
100
AcDbText
 10
12.76566582155874
 20
39.89757875515304
 30
0.0
 40
2.5
  1

  7
ISOCP
100
AcDbAttribute
  2
ÄND.
 70
     0
  0
ATTRIB
  5
2480
330
244F
100
AcDbEntity
  8
TEXTE
100
AcDbText
 10
25.92109181350406
 20
39.80658243229285
 30
0.0
 40
2.5
  1

  7
ISOCP
 72
     5
 11
31.79609181350406
 21
39.80658243229285
 31
0.0
100
AcDbAttribute
  2
DAT
 70
     0
  0
ATTRIB
  5
2481
330
244F
100
AcDbEntity
  8
TEXTE
100
AcDbText
 10
38.50278588288171
 20
39.80658243229285
 30
0.0
 40
2.5
  1

  7
ISOCP
100
AcDbAttribute
  2
NAME
 70
     0
  0
ATTRIB
  5
2482
330
244F
100
AcDbEntity
  8
TEXTE
100
AcDbText
 10
4.621371270251017
 20
44.14757875515302
 30
0.0
 40
2.5
  1

  7
ISOCP
100
AcDbAttribute
  2
ZUST.
 70
     0
  0
ATTRIB
  5
2483
330
244F
100
AcDbEntity
  8
TEXTE
100
AcDbText
 10
12.76566582155874
 20
44.14757875515302
 30
0.0
 40
2.5
  1

  7
ISOCP
100
AcDbAttribute
  2
ÄND.
 70
     0
  0
ATTRIB
  5
2484
330
244F
100
AcDbEntity
  8
TEXTE
100
AcDbText
 10
25.92109181350406
 20
44.05658243229285
 30
0.0
 40
2.5
  1

  7
ISOCP
 72
     5
 11
31.79609181350406
 21
44.05658243229285
 31
0.0
100
AcDbAttribute
  2
DAT
 70
     0
  0
ATTRIB
  5
2485
330
244F
100
AcDbEntity
  8
TEXTE
100
AcDbText
 10
38.50278588288171
 20
44.05658243229285
 30
0.0
 40
2.5
  1

  7
ISOCP
100
AcDbAttribute
  2
NAME
 70
     0
  0
ATTRIB
  5
2486
330
244F
100
AcDbEntity
  8
TEXTE
100
AcDbText
 10
4.621371270251017
 20
48.39757875515303
 30
0.0
 40
2.5
  1

  7
ISOCP
100
AcDbAttribute
  2
ZUST.
 70
     0
  0
ATTRIB
  5
2487
330
244F
100
AcDbEntity
  8
TEXTE
100
AcDbText
 10
12.76566582155874
 20
48.39757875515303
 30
0.0
 40
2.5
  1

  7
ISOCP
100
AcDbAttribute
  2
ÄND.
 70
     0
  0
ATTRIB
  5
2488
330
244F
100
AcDbEntity
  8
TEXTE
100
AcDbText
 10
25.92109181350406
 20
48.30658243229287
 30
0.0
 40
2.5
  1

  7
ISOCP
 72
     5
 11
31.79609181350406
 21
48.30658243229287
 31
0.0
100
AcDbAttribute
  2
DAT
 70
     0
  0
ATTRIB
  5
2489
330
244F
100
AcDbEntity
  8
TEXTE
100
AcDbText
 10
38.50278588288171
 20
48.30658243229287
 30
0.0
 40
2.5
  1

  7
ISOCP
100
AcDbAttribute
  2
NAME
 70
     0
  0
ATTRIB
  5
248A
330
244F
100
AcDbEntity
  8
TEXTE
100
AcDbText
 10
4.621371270251017
 20
52.64757875515304
 30
0.0
 40
2.5
  1

  7
ISOCP
100
AcDbAttribute
  2
ZUST.
 70
     0
  0
ATTRIB
  5
248B
330
244F
100
AcDbEntity
  8
TEXTE
100
AcDbText
 10
12.76566582155874
 20
52.64757875515304
 30
0.0
 40
2.5
  1

  7
ISOCP
100
AcDbAttribute
  2
ÄND.
 70
     0
  0
ATTRIB
  5
248C
330
244F
100
AcDbEntity
  8
TEXTE
100
AcDbText
 10
25.92109181350402
 20
52.55658243229285
 30
0.0
 40
2.5
  1

  7
ISOCP
 72
     5
 11
31.79609181350401
 21
52.55658243229285
 31
0.0
100
AcDbAttribute
  2
DAT
 70
     0
  0
ATTRIB
  5
248D
330
244F
100
AcDbEntity
  8
TEXTE
100
AcDbText
 10
38.50278588288171
 20
52.55658243229285
 30
0.0
 40
2.5
  1

  7
ISOCP
100
AcDbAttribute
  2
NAME
 70
     0
  0
ATTRIB
  5
248E
330
244F
100
AcDbEntity
  8
TEXTE
100
AcDbText
 10
4.621371270251017
 20
56.89757875515297
 30
0.0
 40
2.5
  1

  7
ISOCP
100
AcDbAttribute
  2
ZUST.
 70
     0
  0
ATTRIB
  5
248F
330
244F
100
AcDbEntity
  8
TEXTE
100
AcDbText
 10
12.76566582155874
 20
56.89757875515297
 30
0.0
 40
2.5
  1

  7
ISOCP
100
AcDbAttribute
  2
ÄND.
 70
     0
  0
ATTRIB
  5
2490
330
244F
100
AcDbEntity
  8
TEXTE
100
AcDbText
 10
25.92109181350402
 20
56.80658243229284
 30
0.0
 40
2.5
  1

  7
ISOCP
 72
     5
 11
31.79609181350401
 21
56.80658243229284
 31
0.0
100
AcDbAttribute
  2
DAT
 70
     0
  0
ATTRIB
  5
2491
330
244F
100
AcDbEntity
  8
TEXTE
100
AcDbText
 10
38.50278588288171
 20
56.80658243229284
 30
0.0
 40
2.5
  1

  7
ISOCP
100
AcDbAttribute
  2
NAME
 70
     0
  0
SEQEND
  5
2492
330
244F
100
AcDbEntity
  8
OBJEKT
  0
LINE
  5
2493
330
23BA
100
AcDbEntity
  8
OBJEKT
100
AcDbLine
 10
190.6638876212385
 20
277.8289024238173
 30
0.0
 11
3.463887621238483
 21
277.8289024238173
 31
0.0
  0
LINE
  5
2494
330
23BA
100
AcDbEntity
  8
OBJEKT
100
AcDbLine
 10
190.6638876212385
 20
4.828902423817311
 30
0.0
 11
3.463887621238483
 21
4.828902423817311
 31
0.0
  0
VIEWPORT
  5
2495
330
23BA
100
AcDbEntity
  8
OBJEKT
100
AcDbViewport
 10
97.06388762123848
 20
141.3289024238173
 30
0.0
 40
187.2
 41
273.0
 69
     0
 12
6.842520586879571
 22
-58.18048176170073
 13
0.0
 23
0.0
 14
10.0
 24
10.0
 15
10.0
 25
10.0
 16
0.0
 26
0.0
 36
1.0
 17
0.0
 27
0.0
 37
0.0
 42
50.0
 43
0.0
 44
0.0
 45
272.9999999720488
 50
0.0
 51
0.0
 72
   100
 90
   163872
  1

281
     0
 71
     1
 74
     0
110
0.0
120
0.0
130
0.0
111
1.0
121
0.0
131
0.0
112
0.0
122
1.0
132
0.0
 79
     0
146
0.0
170
     0
  0
LINE
  5
2496
330
23BA
100
AcDbEntity
  8
OBJEKT
100
AcDbLine
 10
3.463887621238483
 20
4.828902423817311
 30
0.0
 11
3.463887621238483
 21
277.8289024238173
 31
0.0
  0
LINE
  5
2497
330
23BA
100
AcDbEntity
  8
OBJEKT
100
AcDbLine
 10
190.6638876212385
 20
4.828902423817311
 30
0.0
 11
190.6638876212385
 21
277.8289024238173
 31
0.0
  0
VIEWPORT
  5
249B
330
23BA
100
AcDbEntity
  8
Ansichtsfenster
100
AcDbViewport
 10
99.02509432975504
 20
177.0618970074393
 30
0.0
 40
187.2
 41
200.75
 69
     0
 12
4.039140845244896
 22
-10.42711190579047
 13
0.0
 23
0.0
 14
10.0
 24
10.0
 15
10.0
 25
10.0
 16
0.0
 26
0.0
 36
1.0
 17
0.0
 27
0.0
 37
0.0
 42
50.0
 43
0.0
 44
0.0
 45
200.7500010135625
 50
0.0
 51
0.0
 72
   100
 90
    32800
  1

281
     0
 71
     1
 74
     0
110
0.0
120
0.0
130
0.0
111
1.0
121
0.0
131
0.0
112
0.0
122
1.0
132
0.0
 79
     0
146
0.0
170
     0
  0
INSERT
  5
24AD
330
23BA
100
AcDbEntity
  8
TEXTE
100
AcDbBlockReference
  2
oberfläche_nach_1302
 10
93.26388762123848
 20
60.07890242381731
 30
0.0
  0
INSERT
  5
24B4
330
23BA
100
AcDbEntity
  8
TEXTE
100
AcDbBlockReference
 66
     1
  2
Allgemeintoleranzen1
 10
49.06388762123845
 20
43.07890242381737
 30
0.0
  0
ATTRIB
  5
24B5
330
24B4
100
AcDbEntity
  8
TEXTE
100
AcDbText
 10
58.80363348914165
 20
47.98484707184494
 30
0.0
 40
2.5
  1
ISO 2768-xxx
  7
ISOCP
100
AcDbAttribute
  2
ALGEMEINT.
 70
     0
  0
SEQEND
  5
24B6
330
24B4
100
AcDbEntity
  8
TEXTE
  0
INSERT
  5
2922
330
23BA
100
AcDbEntity
  8
OBJEKT
100
AcDbBlockReference
 66
     1
  2
Werkstückkanten
 10
93.09761547947257
 20
43.26534487227124
 30
0.0
  0
ATTRIB
  5
2923
330
2922
100
AcDbEntity
  8
SCHRAFUR
100
AcDbText
 10
122.3680272305134
 20
50.25998627930498
 30
0.0
 40
2.0
  1
+1
  7
ISOCP
100
AcDbAttribute
  2
+1
 70
     0
  0
ATTRIB
  5
2924
330
2922
100
AcDbEntity
  8
SCHRAFUR
100
AcDbText
 10
122.3680272305134
 20
53.58499251869718
 30
0.0
 40
2.0
  1
+0,3
  7
ISOCP
100
AcDbAttribute
  2
+0,3
 70
     0
  0
ATTRIB
  5
2925
330
2922
100
AcDbEntity
  8
SCHRAFUR
100
AcDbText
 10
102.8843796511994
 20
53.58499251869716
 30
0.0
 40
2.0
  1
-0,3
  7
ISOCP
100
AcDbAttribute
  2
-0,3
 70
     0
  0
ATTRIB
  5
2926
330
2922
100
AcDbEntity
  8
SCHRAFUR
100
AcDbText
 10
102.8843796511994
 20
50.25998627930493
 30
0.0
 40
2.0
  1
-1
  7
ISOCP
100
AcDbAttribute
  2
-1
 70
     0
  0
SEQEND
  5
2927
330
2922
100
AcDbEntity
  8
OBJEKT
  0
ENDBLK
  5
23BD
330
23BA
100
AcDbEntity
  8
0
100
AcDbBlockEnd
  0
BLOCK
  5
290C
330
28F8
100
AcDbEntity
  8
0
100
AcDbBlockBegin
  2
Werkstückkanten
 70
     2
 10
0.0
 20
0.0
 30
0.0
  3
Werkstückkanten
  1

  0
TEXT
  5
28F9
330
28F8
100
AcDbEntity
  8
SCHRAFUR
100
AcDbText
 10
1.005392984460285
 20
13.4646849353138
 30
0.0
 40
2.5
  1
Werkstückkanten DIN ISO 13715
  7
ISOCP
100
AcDbText
  0
ATTDEF
  5
28FA
330
28F8
100
AcDbEntity
  8
SCHRAFUR
100
AcDbText
 10
29.27041175104091
 20
6.99464140703371
 30
0.0
 40
2.0
  1
.
  7
ISOCP
100
AcDbAttributeDefinition
  3
Kanten+0,0
  2
+1
 70
     0
  0
ATTDEF
  5
28FB
330
28F8
100
AcDbEntity
  8
SCHRAFUR
100
AcDbText
 10
29.27041175104091
 20
10.31964764642593
 30
0.0
 40
2.0
  1
.
  7
ISOCP
100
AcDbAttributeDefinition
  3
Kanten+0,0
  2
+0,3
 70
     0
  0
LINE
  5
28FC
330
28F8
100
AcDbEntity
  8
5
100
AcDbLine
 10
28.23978911532419
 20
6.370514789151499
 30
0.0
 11
32.23978911532419
 21
6.370514789151499
 31
0.0
  0
LINE
  5
28FD
330
28F8
100
AcDbEntity
  8
5
100
AcDbLine
 10
27.88623572473091
 20
6.016961398558237
 30
0.0
 11
31.88623572473091
 21
6.016961398558237
 31
0.0
  0
ATTDEF
  5
28FE
330
28F8
100
AcDbEntity
  8
SCHRAFUR
100
AcDbText
 10
9.786764171726872
 20
10.31964764642592
 30
0.0
 40
2.0
  1
.
  7
ISOCP
100
AcDbAttributeDefinition
  3
Kanten-0,0
  2
-0,3
 70
     0
  0
LINE
  5
28FF
330
28F8
100
AcDbEntity
  8
OBJEKT
100
AcDbLine
 10
2.927714411264446
 20
3.042087664404903
 30
0.0
 11
5.427714411264445
 21
3.042087664404903
 31
0.0
  0
LINE
  5
2900
330
28F8
100
AcDbEntity
  8
OBJEKT
100
AcDbLine
 10
5.427714411264445
 20
3.042087664404903
 30
0.0
 11
5.427714411264445
 21
0.5420876644049031
 31
0.0
  0
ATTDEF
  5
2901
330
28F8
100
AcDbEntity
  8
SCHRAFUR
100
AcDbText
 10
9.786764171726872
 20
6.994641407033697
 30
0.0
 40
2.0
  1
.
  7
ISOCP
100
AcDbAttributeDefinition
  3
Kanten-0,0
  2
-1
 70
     0
  0
SOLID
  5
2902
330
28F8
100
AcDbEntity
  8
5
100
AcDbTrace
 10
8.315067101109548
 20
5.104482442865559
 30
0.0
 11
7.490109189725101
 21
5.929440354250004
 31
0.0
 12
5.427714411264445
 22
3.042087664404903
 32
0.0
 13
5.427714411264445
 23
3.042087664404903
 33
0.0
  0
LINE
  5
2903
330
28F8
100
AcDbEntity
  8
5
100
AcDbLine
 10
8.756141536010147
 20
6.370514789151499
 30
0.0
 11
12.75614153601015
 21
6.370514789151499
 31
0.0
  0
LINE
  5
2904
330
28F8
100
AcDbEntity
  8
5
100
AcDbLine
 10
8.756141536010147
 20
10.3705147891515
 30
0.0
 11
8.756141536010147
 21
6.370514789151499
 31
0.0
  0
LINE
  5
2905
330
28F8
100
AcDbEntity
  8
5
100
AcDbLine
 10
8.402588145416871
 20
6.016961398558237
 30
0.0
 11
6.683942159814818
 21
4.298315412956185
 31
0.0
  0
LINE
  5
2906
330
28F8
100
AcDbEntity
  8
5
100
AcDbLine
 10
8.402588145416871
 20
6.016961398558223
 30
0.0
 11
12.40258814541687
 21
6.016961398558223
 31
0.0
  0
LINE
  5
2907
330
28F8
100
AcDbEntity
  8
OBJEKT
100
AcDbLine
 10
22.41136199057848
 20
0.5420876644049031
 30
0.0
 11
22.41136199057848
 21
3.042087664404903
 31
0.0
  0
SOLID
  5
2908
330
28F8
100
AcDbEntity
  8
5
100
AcDbTrace
 10
25.29871468042359
 20
2.60448244286556
 30
0.0
 11
24.47375676903914
 21
3.429440354250003
 31
0.0
 12
22.41136199057848
 22
0.5420876644049031
 32
0.0
 13
22.41136199057848
 23
0.5420876644049031
 33
0.0
  0
LINE
  5
2909
330
28F8
100
AcDbEntity
  8
5
100
AcDbLine
 10
27.88623572473091
 20
6.016961398558237
 30
0.0
 11
23.66758973912886
 21
1.798315412956185
 31
0.0
  0
LINE
  5
290A
330
28F8
100
AcDbEntity
  8
5
100
AcDbLine
 10
28.23978911532419
 20
10.3705147891515
 30
0.0
 11
28.23978911532419
 21
6.370514789151499
 31
0.0
  0
LINE
  5
290B
330
28F8
100
AcDbEntity
  8
OBJEKT
100
AcDbLine
 10
24.91136199057848
 20
0.5420876644049031
 30
0.0
 11
22.41136199057848
 21
0.5420876644049031
 31
0.0
  0
ENDBLK
  5
290D
330
28F8
100
AcDbEntity
  8
0
100
AcDbBlockEnd
  0
BLOCK
  5
45CE
330
45CD
100
AcDbEntity
  8
0
100
AcDbBlockBegin
  2
Systemdeckel1
 70
     0
 10
0.0
 20
0.0
 30
0.0
  3
Systemdeckel1
  1

  0
HATCH
  5
4B8A
330
45CD
100
AcDbEntity
  8
SCHRAFFUR
  6
Continuous
100
AcDbHatch
 10
0.0
 20
0.0
 30
0.0000000000002902
210
0.0
220
0.0
230
1.0
  2
ANSI31
 70
     0
 71
     1
 91
        1
 92
        7
 72
     1
 73
     1
 93
       16
 10
136.9879679180872
 20
-58.3713261866085
 42
0.0
 10
139.9879679173547
 20
-56.37125989145477
 42
0.0
 10
139.9879679173547
 20
-55.0
 42
0.0
 10
61.09999999999995
 20
-53.62300539794751
 42
0.0
 10
52.5300000000001
 20
-60.06667862302856
 42
0.0
 10
0.0000000000000284
 20
-60.50300539794773
 42
0.0
 10
0.0
 20
-64.12300539794762
 42
0.0
 10
1.500000000000027
 20
-68.12300539794762
 42
0.0
 10
4.5
 20
-68.12300539794762
 42
0.0
 10
4.5
 20
-67.62300539794762
 42
-1.0
 10
4.5
 20
-65.62300539794762
 42
0.0
 10
4.5
 20
-64.87300539794762
 42
0.0
 10
48.99999999999995
 20
-64.87300539794762
 42
0.0
 10
49.99999999999989
 20
-63.62300539794762
 42
0.0
 10
52.52999999999993
 20
-63.62300539794762
 42
0.0
 10
60.99999999999994
 20
-58.37300539794775
 42
0.0
 97
       16
330
4BAB
330
4B9D
330
4BA3
330
4B8B
330
4B91
330
4B93
330
4B94
330
4B95
330
4B96
330
4B97
330
4B8C
330
4BA5
330
4BA6
330
4BA4
330
4B9E
330
4BAC
 75
     0
 76
     1
 52
90.0
 41
1.0
 77
     0
 78
     1
 53
135.0
 43
164.6016486815594
 44
-800.9165215714501
 45
-2.245064030267287
 46
-2.245064030267287
 79
     0
 47
0.3283437447038846
 98
        1
 10
108.3666596434797
 20
-56.9232635656532
  0
LINE
  5
4B8B
102
{ACAD_REACTORS
330
4B8A
102
}
330
45CD
100
AcDbEntity
  8
1
100
AcDbLine
 10
52.52999999999997
 20
-60.06667862302868
 30
0.0000000000002902
 11
0.0
 21
-60.50300539794773
 31
0.0000000000002902
  0
LINE
  5
4B8C
102
{ACAD_REACTORS
330
4B8A
102
}
330
45CD
100
AcDbEntity
  8
1
100
AcDbLine
 10
49.0
 20
-64.87300539794762
 30
0.0000000000002902
 11
4.5
 21
-64.87300539794762
 31
0.0000000000002902
  0
HATCH
  5
4B8D
330
45CD
100
AcDbEntity
  8
SCHRAFFUR
  6
Continuous
100
AcDbHatch
 10
0.0
 20
0.0
 30
0.0000000000002902
210
0.0
220
0.0
230
1.0
  2
ANSI31
 70
     0
 71
     0
 91
        1
 92
        7
 72
     1
 73
     1
 93
       15
 10
139.9879679173547
 20
54.99999999999989
 42
0.0
 10
139.9879679173547
 20
58.371259891455
 42
0.0
 10
61.0000000000004
 20
58.37300539794751
 42
0.0
 10
52.52999999999989
 20
63.62300539794762
 42
0.0
 10
49.99999999999992
 20
63.62300539794762
 42
0.0
 10
48.99999999999997
 20
64.87300539794762
 42
0.0
 10
4.5
 20
64.87300539794762
 42
0.0
 10
4.5
 20
65.62300539794762
 42
-1.0
 10
4.5
 20
67.62300539794762
 42
0.0
 10
4.5
 20
68.12300539794751
 42
0.0
 10
1.500000000000027
 20
68.12300539794762
 42
0.0
 10
0.0
 20
64.12300539794762
 42
0.0
 10
-0.0000000000000284
 20
60.5030053979476
 42
0.0
 10
52.5300000000002
 20
60.06667862302868
 42
0.0
 10
61.09999999999999
 20
53.62300539794762
 42
0.0
 97
        0
 75
     0
 76
     1
 52
90.0
 41
1.0
 77
     0
 78
     1
 53
135.0
 43
-140.1790936813461
 44
-800.9165215714501
 45
-2.245064030267287
 46
-2.245064030267287
 79
     0
 47
0.2380008787987036
 98
        1
 10
119.2136689739598
 20
55.47493914203585
  0
LINE
  5
4B8E
330
45CD
100
AcDbEntity
  8
MITTELLINIE
100
AcDbLine
 10
145.7699861088633
 20
0.0
 30
0.0
 11
-4.624595564954915
 21
0.0
 31
0.0
  0
LINE
  5
4B8F
330
45CD
100
AcDbEntity
  8
1
100
AcDbLine
 10
52.52999999999997
 20
60.06667862302868
 30
0.0000000000002902
 11
0.0
 21
60.50300539794773
 31
0.0000000000002902
  0
LINE
  5
4B90
330
45CD
100
AcDbEntity
  8
1
100
AcDbLine
 10
49.0
 20
64.87300539794762
 30
0.0000000000002902
 11
4.5
 21
64.87300539794762
 31
0.0000000000002902
  0
LINE
  5
4B91
102
{ACAD_REACTORS
330
4B8A
102
}
330
45CD
100
AcDbEntity
  8
1
100
AcDbLine
 10
0.0
 20
-64.12300539794762
 30
0.0000000000002902
 11
0.0
 21
64.12300539794762
 31
0.0000000000002902
  0
LINE
  5
4B92
330
45CD
100
AcDbEntity
  8
1
100
AcDbLine
 10
0.0
 20
-64.12300539794762
 30
0.0000000000002902
 11
0.0
 21
64.12300539794762
 31
0.0000000000002902
  0
LINE
  5
4B93
102
{ACAD_REACTORS
330
4B8A
102
}
330
45CD
100
AcDbEntity
  8
1
100
AcDbLine
 10
1.5
 20
-68.12300539794762
 30
0.0000000000002902
 11
0.0
 21
-64.12300539794762
 31
0.0000000000002902
  0
LINE
  5
4B94
102
{ACAD_REACTORS
330
4B8A
102
}
330
45CD
100
AcDbEntity
  8
1
100
AcDbLine
 10
1.5
 20
-68.12300539794762
 30
0.0000000000002902
 11
4.5
 21
-68.12300539794762
 31
0.0000000000002902
  0
LINE
  5
4B95
102
{ACAD_REACTORS
330
4B8A
102
}
330
45CD
100
AcDbEntity
  8
1
100
AcDbLine
 10
4.5
 20
-68.12300539794762
 30
0.0000000000002902
 11
4.5
 21
-67.62300539794762
 31
0.0000000000002902
  0
ARC
  5
4B96
102
{ACAD_REACTORS
330
4B8A
102
}
330
45CD
100
AcDbEntity
  8
1
100
AcDbCircle
 10
4.500000000000056
 20
-66.62300539794762
 30
0.0000000000002902
 40
1.0
100
AcDbArc
 50
90.0
 51
270.0
  0
LINE
  5
4B97
102
{ACAD_REACTORS
330
4B8A
102
}
330
45CD
100
AcDbEntity
  8
1
100
AcDbLine
 10
4.5
 20
-65.62300539794762
 30
0.0000000000002902
 11
4.5
 21
-64.87300539794762
 31
0.0000000000002902
  0
ARC
  5
4B98
330
45CD
100
AcDbEntity
  8
1
100
AcDbCircle
 10
4.500000000000056
 20
66.62300539794762
 30
0.0000000000002902
 40
1.0
100
AcDbArc
 50
90.0
 51
270.0
  0
LINE
  5
4B99
330
45CD
100
AcDbEntity
  8
1
100
AcDbLine
 10
1.5
 20
68.12300539794762
 30
0.0000000000002902
 11
0.0
 21
64.12300539794762
 31
0.0000000000002902
  0
LINE
  5
4B9A
330
45CD
100
AcDbEntity
  8
1
100
AcDbLine
 10
4.5
 20
65.62300539794762
 30
0.0000000000002902
 11
4.5
 21
64.87300539794762
 31
0.0000000000002902
  0
LINE
  5
4B9B
330
45CD
100
AcDbEntity
  8
1
100
AcDbLine
 10
4.5
 20
68.12300539794762
 30
0.0000000000002902
 11
4.5
 21
67.62300539794762
 31
0.0000000000002902
  0
LINE
  5
4B9C
330
45CD
100
AcDbEntity
  8
1
100
AcDbLine
 10
1.5
 20
68.12300539794762
 30
0.0000000000002902
 11
4.5
 21
68.12300539794762
 31
0.0000000000002902
  0
LINE
  5
4B9D
102
{ACAD_REACTORS
330
4B8A
102
}
330
45CD
100
AcDbEntity
  8
OBJEKT
100
AcDbLine
 10
61.0999999999999
 20
-53.62300539794762
 30
0.0000000000002902
 11
139.9879831478392
 21
-55.00000026584904
 31
0.0000000000002902
  0
LINE
  5
4B9E
102
{ACAD_REACTORS
330
4B8A
102
}
330
45CD
100
AcDbEntity
  8
1
100
AcDbLine
 10
136.9879679180873
 20
-58.37132618660859
 30
0.0000000000002902
 11
61.0
 21
-58.37300539794761
 31
0.0000000000002902
  0
LINE
  5
4B9F
330
45CD
100
AcDbEntity
  8
1
100
AcDbLine
 10
136.9879679180873
 20
58.3713261866085
 30
0.0000000000002902
 11
61.0
 21
58.37300539794761
 31
0.0000000000002902
  0
LINE
  5
4BA0
330
45CD
100
AcDbEntity
  8
OBJEKT
100
AcDbLine
 10
61.0999999999999
 20
53.62300539794762
 30
0.0000000000002902
 11
139.9879831478392
 21
55.00000026584904
 31
0.0000000000002902
  0
LINE
  5
4BA1
330
45CD
100
AcDbEntity
  8
1
100
AcDbLine
 10
61.00417689147931
 20
53.695053565826
 30
0.0000000000002902
 11
61.0999999999999
 21
-53.62300539794762
 31
0.0000000000002902
  0
LINE
  5
4BA2
330
45CD
100
AcDbEntity
  8
OBJEKT
100
AcDbLine
 10
52.52999999999997
 20
60.06667862302868
 30
0.0000000000002902
 11
52.52999999999997
 21
-60.06667862302868
 31
0.0000000000002902
  0
LINE
  5
4BA3
102
{ACAD_REACTORS
330
4B8A
102
}
330
45CD
100
AcDbEntity
  8
OBJEKT
100
AcDbLine
 10
52.52999999999997
 20
-60.06667862302868
 30
0.0000000000002902
 11
61.0999999999999
 21
-53.62300539794762
 31
0.0000000000002902
  0
LINE
  5
4BA4
102
{ACAD_REACTORS
330
4B8A
102
}
330
45CD
100
AcDbEntity
  8
OBJEKT
100
AcDbLine
 10
52.52999999999997
 20
-63.62300539794762
 30
0.0000000000002902
 11
61.0
 21
-58.37300539794761
 31
0.0000000000002902
  0
LINE
  5
4BA5
102
{ACAD_REACTORS
330
4B8A
102
}
330
45CD
100
AcDbEntity
  8
1
100
AcDbLine
 10
49.0
 20
-64.87300539794762
 30
0.0000000000002902
 11
50.0
 21
-63.62300539794762
 31
0.0000000000002902
  0
LINE
  5
4BA6
102
{ACAD_REACTORS
330
4B8A
102
}
330
45CD
100
AcDbEntity
  8
1
100
AcDbLine
 10
50.0
 20
-63.62300539794762
 30
0.0000000000002902
 11
52.52999999999997
 21
-63.62300539794762
 31
0.0000000000002902
  0
LINE
  5
4BA7
330
45CD
100
AcDbEntity
  8
OBJEKT
100
AcDbLine
 10
52.52999999999997
 20
60.06667862302868
 30
0.0000000000002902
 11
61.0999999999999
 21
53.62300539794762
 31
0.0000000000002902
  0
LINE
  5
4BA8
330
45CD
100
AcDbEntity
  8
OBJEKT
100
AcDbLine
 10
52.52999999999997
 20
63.62300539794762
 30
0.0000000000002902
 11
61.0
 21
58.37300539794761
 31
0.0000000000002902
  0
LINE
  5
4BA9
330
45CD
100
AcDbEntity
  8
1
100
AcDbLine
 10
49.0
 20
64.87300539794762
 30
0.0000000000002902
 11
50.0
 21
63.62300539794762
 31
0.0000000000002902
  0
LINE
  5
4BAA
330
45CD
100
AcDbEntity
  8
1
100
AcDbLine
 10
50.0
 20
63.62300539794762
 30
0.0000000000002902
 11
52.52999999999997
 21
63.62300539794762
 31
0.0000000000002902
  0
LINE
  5
4BAB
102
{ACAD_REACTORS
330
4B8A
102
}
330
45CD
100
AcDbEntity
  8
1
100
AcDbLine
 10
139.9879679173547
 20
56.37125989145477
 30
0.0000000000002902
 11
139.9879679173547
 21
-56.37125989145489
 31
0.0000000000002902
  0
LINE
  5
4BAC
102
{ACAD_REACTORS
330
4B8A
102
}
330
45CD
100
AcDbEntity
  8
1
100
AcDbLine
 10
136.9879679180873
 20
-58.37132618660859
 30
0.0000000000002902
 11
139.9879679173547
 21
-56.37125989145489
 31
0.0000000000002902
  0
LINE
  5
4BAD
330
45CD
100
AcDbEntity
  8
1
100
AcDbLine
 10
136.9879679180873
 20
58.3713261866085
 30
0.0000000000002902
 11
139.9879679173547
 21
56.37125989145477
 31
0.0000000000002902
  0
ENDBLK
  5
45CF
330
45CD
100
AcDbEntity
  8
0
100
AcDbBlockEnd
  0
ENDSEC
  0
SECTION
  2
ENTITIES
  0
INSERT
  5
107
330
18
100
AcDbEntity
  8
MITTELLINIE
100
AcDbBlockReference
  2
PROTO
 10
191.203180816766
 20
97.61368935402813
 30
0.0
  0
TEXT
  5
1157
330
18
100
AcDbEntity
  8
5
100
AcDbText
 10
151.3036720483299
 20
173.100330500662
 30
0.0
 40
3.5
  1
 
  7
ROMANS
100
AcDbText
  0
TEXT
  5
1158
330
18
100
AcDbEntity
  8
5
100
AcDbText
 10
129.8729906754903
 20
216.6426036892462
 30
0.0
 40
3.5
  1
 
  7
ROMANS
100
AcDbText
  0
MTEXT
  5
1183
330
18
100
AcDbEntity
  8
OBJEKT
100
AcDbMText
 10
259.2524242957761
 20
169.4252122649925
 30
0.0
 40
3.5
 41
107.5464
 71
     1
 72
     5
  1

 73
     1
 44
1.0
  0
MTEXT
  5
11C8
330
18
100
AcDbEntity
  8
SCHRAFFUR
100
AcDbMText
 10
311.5979966260216
 20
90.00452114891199
 30
0.0
 40
3.5
 41
84.22880000000002
 71
     1
 72
     5
  1

  7
ISOCP
 73
     1
 44
1.0
  0
LINE
  5
1BBA
330
18
100
AcDbEntity
  8
MITTELLINIE
100
AcDbLine
 10
-0.0000000000000026
 20
-50.0
 30
0.0
 11
0.0000000000000036
 21
50.0
 31
0.0
  0
LINE
  5
1BBB
330
18
100
AcDbEntity
  8
MITTELLINIE
100
AcDbLine
 10
-50.0
 20
0.0
 30
0.0
 11
50.0
 21
0.0
 31
0.0
  0
LINE
  5
2EA4
330
18
100
AcDbEntity
  8
VERDECKT
 48
3.0
100
AcDbLine
 10
143.5819065897674
 20
-76.79573590991498
 30
0.0
 11
143.5819065897674
 21
-4.984212826073701
 31
0.0
  0
LINE
  5
2EA5
330
18
100
AcDbEntity
  8
GEGEBENHEIT
 48
3.0
100
AcDbLine
 10
133.5819065897674
 20
-76.79573590991498
 30
0.0
 11
133.5819065897674
 21
-4.984212826073701
 31
0.0
  0
HATCH
  5
2EA6
330
18
100
AcDbEntity
  8
SCHRAFFUR
100
AcDbHatch
 10
0.0
 20
0.0
 30
0.0
210
0.0
220
0.0
230
1.0
  2
ANSI33
 70
     0
 71
     0
 91
        1
 92
        7
 72
     1
 73
     1
 93
        2
 10
233.0452471590536
 20
-49.21250170488014
 42
1.0
 10
213.0452471590536
 20
-49.21250170488014
 42
1.0
 97
        0
 75
     0
 76
     1
 52
90.0
 41
2.0
 77
     0
 78
     2
 53
135.0
 43
-83.79406054249148
 44
-79.77039791050692
 45
-8.980256121069151
 46
-8.98025612106915
 79
     0
 53
135.0
 43
-83.79406054249148
 44
-70.79013791050693
 45
-8.980256121069151
 46
-8.98025612106915
 79
     2
 49
6.349999999999998
 49
-3.174999999999998
 47
0.4755729984301411
 98
        1
 10
222.0935098412779
 20
-50.16364744440858
  0
HATCH
  5
2EA7
330
18
100
AcDbEntity
  8
SCHRAFFUR
100
AcDbHatch
 10
0.0
 20
0.0
 30
0.0
210
0.0
220
0.0
230
1.0
  2
ANSI31
 70
     0
 71
     0
 91
        1
 92
        7
 72
     1
 73
     1
 93
        2
 10
186.3965929189424
 20
-49.21250170488014
 42
1.0
 10
206.3965929189424
 20
-49.21250170488014
 42
1.0
 97
        0
 75
     0
 76
     1
 52
90.0
 41
1.0
 77
     0
 78
     1
 53
135.0
 43
-83.79406054249148
 44
-79.77039791050692
 45
-2.245064030267287
 46
-2.245064030267287
 79
     0
 47
0.4755729984301411
 98
        1
 10
194.0172484567042
 20
-49.21250170488014
  0
HATCH
  5
2EA8
330
18
100
AcDbEntity
  8
SCHRAFFUR
100
AcDbHatch
 10
0.0
 20
0.0
 30
0.0
210
0.0
220
0.0
230
1.0
  2
ANSI31
 70
     0
 71
     0
 91
        1
 92
        7
 72
     1
 73
     1
 93
        2
 10
178.7962001932567
 20
-49.21250170488014
 42
1.0
 10
158.7962001932567
 20
-49.21250170488014
 42
1.0
 97
        0
 75
     0
 76
     1
 52
0.0
 41
1.0
 77
     0
 78
     1
 53
45.0
 43
-83.79406054249148
 44
-79.77039791050692
 45
-2.245064030267287
 46
2.245064030267287
 79
     0
 47
0.4755729984301411
 98
        1
 10
170.6996759966071
 20
-50.63922101950999
  0
HATCH
  5
2EA9
330
18
100
AcDbEntity
  8
SCHRAFFUR
100
AcDbHatch
 10
0.0
 20
0.0
 30
0.0
210
0.0
220
0.0
230
1.0
  2
AR-SAND
 70
     0
 71
     0
 91
        1
 92
        7
 72
     1
 73
     1
 93
        2
 10
259.6939013991648
 20
-49.21250170488014
 42
1.0
 10
239.6939013991648
 20
-49.21250170488014
 42
1.0
 97
        0
 75
     0
 76
     1
 52
0.0
 41
0.1
 77
     0
 78
     4
 53
37.5
 43
-83.79406054249148
 44
-79.77039791050692
 45
-0.1600031295984046
 46
4.894132373293422
 79
     6
 49
0.0
 49
-3.860799999999999
 49
0.0
 49
-4.318
 49
0.0
 49
-4.1275
 53
7.499999999999999
 43
-83.79406054249148
 44
-79.77039791050692
 45
4.495232831380026
 46
7.168251005683542
 79
     6
 49
0.0
 49
-2.0828
 49
0.0
 49
-3.4798
 49
0.0
 49
-1.333499999999999
 53
327.5
 43
-86.91826054249156
 44
-79.77039791050692
 45
7.909923702414578
 46
0.0143718467854569
 79
     6
 49
0.0
 49
-1.27
 49
0.0
 49
-4.572
 49
0.0
 49
-5.968999999999999
 53
317.5
 43
-86.91826054249156
 44
-79.77039791050692
 45
7.635564524722973
 46
2.229293232572162
 79
     6
 49
0.0
 49
-0.635
 49
0.0
 49
-2.997199999999999
 49
0.0
 49
-3.428999999999999
 47
0.4755729984301411
 98
        1
 10
248.7421652491878
 20
-50.63922101950999
  0
SPLINE
  5
41D8
102
{ACAD_REACTORS
330
4C5A
102
}
330
18
100
AcDbEntity
  8
OBJEKT
100
AcDbSpline
210
0.0
220
0.0
230
1.0
 70
     8
 71
     3
 72
    11
 73
     7
 74
     0
 42
0.0000000001
 43
0.0000000001
 40
0.8714141175821469
 40
0.8714141175821469
 40
0.8714141175821469
 40
0.8714141175821469
 40
36.54879414459291
 40
63.47461818026542
 40
90.40044221593795
 40
126.5931227726089
 40
126.5931227726089
 40
126.5931227726089
 40
126.5931227726089
 10
515.1245761135201
 20
860.2245535542691
 30
0.0
 10
520.5830427312378
 20
848.671848907497
 30
0.0
 10
529.8904668484233
 20
828.4142798671345
 30
0.0
 10
514.7244257003991
 20
800.9169304855769
 30
0.0
 10
499.4710936568696
 20
773.2613151315014
 30
0.0
 10
509.0203806319925
 20
752.8284534002873
 30
0.0
 10
514.5608682324755
 20
741.1087244860307
 30
0.0
  0
SPLINE
  5
41D9
102
{ACAD_REACTORS
330
4780
102
}
330
18
100
AcDbEntity
  8
OBJEKT
100
AcDbSpline
210
0.0
220
0.0
230
1.0
 70
     8
 71
     3
 72
    11
 73
     7
 74
     5
 42
0.0000000001
 43
0.0000000001
 44
0.0000000001
 40
0.0
 40
0.0
 40
0.0
 40
0.0
 40
36.79064653241316
 40
63.71647056808567
 40
90.64229460375818
 40
127.1910887483509
 40
127.1910887483509
 40
127.1910887483509
 40
127.1910887483509
 10
519.6249737109324
 20
861.2942218146967
 30
0.0
 10
525.2779875140783
 20
849.3846540377154
 30
0.0
 10
535.0682500279973
 20
828.7588782968052
 30
0.0
 10
519.7268960695965
 20
800.9163182273173
 30
0.0
 10
504.4098880398379
 20
773.152159043477
 30
0.0
 10
514.1284570030149
 20
752.5979360709742
 30
0.0
 10
519.7244257003991
 20
740.762779188414
 30
0.0
 11
519.6249737109324
 21
861.2942218146967
 31
0.0
 11
529.7244257003991
 21
825.9169304855769
 31
0.0
 11
519.7244257003991
 21
800.9169304855769
 31
0.0
 11
509.7244257003992
 21
775.9169304855769
 31
0.0
 11
519.7244257003991
 21
740.762779188414
 31
0.0
  0
LINE
  5
41DC
330
18
100
AcDbEntity
  8
MITTELLINIE
100
AcDbLine
 10
653.367885102846
 20
800.9169304855769
 30
-0.0000000000002902
 11
381.1382967366199
 21
800.9169304855769
 31
-0.0000000000002902
  0
LINE
  5
41DE
102
{ACAD_REACTORS
330
4780
102
}
330
18
100
AcDbEntity
  8
OBJEKT
100
AcDbLine
 10
636.1760573935266
 20
745.9169304855769
 30
-0.0000000000002902
 11
517.3076785135075
 21
745.9169304855769
 31
-0.0000000000002902
  0
LINE
  5
426D
102
{ACAD_REACTORS
330
4780
102
}
330
18
100
AcDbEntity
  8
OBJEKT
100
AcDbLine
 10
636.1760573935266
 20
855.9169304855769
 30
-0.0000000000002902
 11
522.1410513480126
 21
855.9169304855769
 31
-0.0000000000002902
  0
ARC
  5
4270
102
{ACAD_REACTORS
330
4C5A
102
}
330
18
100
AcDbEntity
  8
OBJEKT
100
AcDbCircle
 10
401.5830744139311
 20
860.2090550928844
 30
0.0000000000002826
 40
4.880471876513523
100
AcDbArc
 50
31.75874486621613
 51
90.0
  0
ARC
  5
4272
102
{ACAD_REACTORS
330
4C5A
102
}
330
18
100
AcDbEntity
  8
OBJEKT
100
AcDbCircle
 10
406.5830744139311
 20
863.3042044415374
 30
0.0000000000002826
 40
1.0
100
AcDbArc
 50
211.7587448662142
 51
328.2412551337858
  0
ARC
  5
42FE
102
{ACAD_REACTORS
330
4C5A
102
}
330
18
100
AcDbEntity
  8
OBJEKT
100
AcDbCircle
 10
411.5830744139309
 20
860.2090550928844
 30
0.0000000000002826
 40
4.880471876513523
100
AcDbArc
 50
90.0
 51
148.2412551337838
  0
ARC
  5
4302
102
{ACAD_REACTORS
330
4C5A
102
}
330
18
100
AcDbEntity
  8
OBJEKT
100
AcDbCircle
 10
416.5830744139311
 20
863.3042044415374
 30
0.0000000000002826
 40
1.0
100
AcDbArc
 50
211.7587448662141
 51
328.2412551337858
  0
ARC
  5
4303
102
{ACAD_REACTORS
330
4C5A
102
}
330
18
100
AcDbEntity
  8
OBJEKT
100
AcDbCircle
 10
421.5830744139311
 20
860.2090550928844
 30
0.0000000000002826
 40
4.880471876513523
100
AcDbArc
 50
90.0
 51
148.2412551337838
  0
ARC
  5
4304
102
{ACAD_REACTORS
330
4C5A
102
}
330
18
100
AcDbEntity
  8
OBJEKT
100
AcDbCircle
 10
411.5830744139309
 20
860.2090550928844
 30
0.0000000000002826
 40
4.880471876513523
100
AcDbArc
 50
31.75874486621617
 51
90.0
  0
ARC
  5
4305
102
{ACAD_REACTORS
330
4C5A
102
}
330
18
100
AcDbEntity
  8
OBJEKT
100
AcDbCircle
 10
396.5830744139311
 20
863.3042044415374
 30
0.0000000000002826
 40
1.0
100
AcDbArc
 50
259.3550113056767
 51
328.2412551337858
  0
ARC
  5
4306
102
{ACAD_REACTORS
330
4C5A
102
}
330
18
100
AcDbEntity
  8
OBJEKT
100
AcDbCircle
 10
401.5830744139311
 20
860.2090550928844
 30
0.0000000000002826
 40
4.880471876513523
100
AcDbArc
 50
90.0
 51
148.2412551337838
  0
ARC
  5
4309
102
{ACAD_REACTORS
330
4C5A
102
}
330
18
100
AcDbEntity
  8
OBJEKT
100
AcDbCircle
 10
426.5830744139311
 20
863.3042044415374
 30
0.0000000000002826
 40
1.0
100
AcDbArc
 50
211.7587448662142
 51
328.2412551337858
  0
ARC
  5
430A
102
{ACAD_REACTORS
330
4C5A
102
}
330
18
100
AcDbEntity
  8
OBJEKT
100
AcDbCircle
 10
421.5830744139311
 20
860.2090550928844
 30
0.0000000000002826
 40
4.880471876513523
100
AcDbArc
 50
31.75874486621613
 51
90.0
  0
ARC
  5
430B
102
{ACAD_REACTORS
330
4C5A
102
}
330
18
100
AcDbEntity
  8
OBJEKT
100
AcDbCircle
 10
431.5830744139311
 20
860.2090550928844
 30
0.0000000000002826
 40
4.880471876513523
100
AcDbArc
 50
31.75874486621617
 51
90.0
  0
ARC
  5
430C
102
{ACAD_REACTORS
330
4C5A
102
}
330
18
100
AcDbEntity
  8
OBJEKT
100
AcDbCircle
 10
441.5830744139311
 20
860.2090550928844
 30
0.0000000000002826
 40
4.880471876513523
100
AcDbArc
 50
90.0
 51
148.2412551337838
  0
ARC
  5
430D
102
{ACAD_REACTORS
330
4C5A
102
}
330
18
100
AcDbEntity
  8
OBJEKT
100
AcDbCircle
 10
436.5830744139309
 20
863.3042044415374
 30
0.0000000000002826
 40
1.0
100
AcDbArc
 50
211.7587448662141
 51
328.2412551337858
  0
ARC
  5
430E
102
{ACAD_REACTORS
330
4C5A
102
}
330
18
100
AcDbEntity
  8
OBJEKT
100
AcDbCircle
 10
431.5830744139311
 20
860.2090550928844
 30
0.0000000000002826
 40
4.880471876513523
100
AcDbArc
 50
90.0
 51
148.2412551337838
  0
ARC
  5
430F
102
{ACAD_REACTORS
330
4C5A
102
}
330
18
100
AcDbEntity
  8
OBJEKT
100
AcDbCircle
 10
461.5830744139309
 20
860.2090550928844
 30
0.0000000000002826
 40
4.880471876513523
100
AcDbArc
 50
31.75874486621613
 51
90.0
  0
ARC
  5
4310
102
{ACAD_REACTORS
330
4C5A
102
}
330
18
100
AcDbEntity
  8
OBJEKT
100
AcDbCircle
 10
446.5830744139311
 20
863.3042044415374
 30
0.0000000000002826
 40
1.0
100
AcDbArc
 50
211.7587448662142
 51
328.2412551337858
  0
ARC
  5
4311
102
{ACAD_REACTORS
330
4C5A
102
}
330
18
100
AcDbEntity
  8
OBJEKT
100
AcDbCircle
 10
441.5830744139311
 20
860.2090550928844
 30
0.0000000000002826
 40
4.880471876513523
100
AcDbArc
 50
31.75874486621613
 51
90.0
  0
ARC
  5
4312
102
{ACAD_REACTORS
330
4C5A
102
}
330
18
100
AcDbEntity
  8
OBJEKT
100
AcDbCircle
 10
451.5830744139311
 20
860.2090550928844
 30
0.0000000000002826
 40
4.880471876513523
100
AcDbArc
 50
31.75874486621617
 51
90.0
  0
ARC
  5
4313
102
{ACAD_REACTORS
330
4C5A
102
}
330
18
100
AcDbEntity
  8
OBJEKT
100
AcDbCircle
 10
461.5830744139309
 20
860.2090550928844
 30
0.0000000000002826
 40
4.880471876513523
100
AcDbArc
 50
90.0
 51
148.2412551337838
  0
ARC
  5
4314
102
{ACAD_REACTORS
330
4C5A
102
}
330
18
100
AcDbEntity
  8
OBJEKT
100
AcDbCircle
 10
456.5830744139311
 20
863.3042044415374
 30
0.0000000000002826
 40
1.0
100
AcDbArc
 50
211.7587448662141
 51
328.2412551337858
  0
ARC
  5
4315
102
{ACAD_REACTORS
330
4C5A
102
}
330
18
100
AcDbEntity
  8
OBJEKT
100
AcDbCircle
 10
451.5830744139311
 20
860.2090550928844
 30
0.0000000000002826
 40
4.880471876513523
100
AcDbArc
 50
90.0
 51
148.2412551337838
  0
ARC
  5
4316
102
{ACAD_REACTORS
330
4C5A
102
}
330
18
100
AcDbEntity
  8
OBJEKT
100
AcDbCircle
 10
471.5830744139311
 20
860.2090550928844
 30
0.0000000000002826
 40
4.880471876513523
100
AcDbArc
 50
90.0
 51
148.2412551337838
  0
ARC
  5
4317
102
{ACAD_REACTORS
330
4C5A
102
}
330
18
100
AcDbEntity
  8
OBJEKT
100
AcDbCircle
 10
476.5830744139311
 20
863.3042044415374
 30
0.0000000000002826
 40
1.0
100
AcDbArc
 50
211.7587448662141
 51
328.2412551337858
  0
ARC
  5
4318
102
{ACAD_REACTORS
330
4C5A
102
}
330
18
100
AcDbEntity
  8
OBJEKT
100
AcDbCircle
 10
480.2741771233471
 20
860.0455614945584
 30
0.0000000000002826
 40
3.941545234613068
100
AcDbArc
 50
70.60509856240513
 51
136.1156414236783
  0
ARC
  5
4319
102
{ACAD_REACTORS
330
4C5A
102
}
330
18
100
AcDbEntity
  8
OBJEKT
100
AcDbCircle
 10
471.5830744139311
 20
860.2090550928844
 30
0.0000000000002826
 40
4.880471876513523
100
AcDbArc
 50
31.75874486621617
 51
90.0
  0
ARC
  5
431A
102
{ACAD_REACTORS
330
4C5A
102
}
330
18
100
AcDbEntity
  8
OBJEKT
100
AcDbCircle
 10
466.5830744139311
 20
863.3042044415374
 30
0.0000000000002826
 40
1.0
100
AcDbArc
 50
211.7587448662142
 51
328.2412551337858
  0
ARC
  5
431B
102
{ACAD_REACTORS
330
4780
102
}
330
18
100
AcDbEntity
  8
OBJEKT
100
AcDbCircle
 10
541.6117683505317
 20
856.8364586090634
 30
0.0
 40
4.880471876513523
100
AcDbArc
 50
90.0
 51
148.2412551337838
  0
ARC
  5
431C
102
{ACAD_REACTORS
330
4C5A
102
}
330
18
100
AcDbEntity
  8
OBJEKT
100
AcDbCircle
 10
501.6117683505316
 20
856.8364586090634
 30
0.0
 40
4.880471876513523
100
AcDbArc
 50
31.75874486621613
 51
90.0
  0
ARC
  5
431D
102
{ACAD_REACTORS
330
4C5A
102
}
330
18
100
AcDbEntity
  8
OBJEKT
100
AcDbCircle
 10
486.6117683505317
 20
859.9316079577162
 30
0.0
 40
1.0
100
AcDbArc
 50
211.7587448662142
 51
328.2412551337858
  0
ARC
  5
431E
102
{ACAD_REACTORS
330
4C5A
102
}
330
18
100
AcDbEntity
  8
OBJEKT
100
AcDbCircle
 10
479.2701619715761
 20
857.3637843713472
 30
0.0000000000002826
 40
6.804782393109576
100
AcDbArc
 50
17.45800176743949
 51
70.12951463215163
  0
ARC
  5
431F
102
{ACAD_REACTORS
330
4C5A
102
}
330
18
100
AcDbEntity
  8
OBJEKT
100
AcDbCircle
 10
491.6117683505317
 20
856.8364586090634
 30
0.0
 40
4.880471876513523
100
AcDbArc
 50
31.75874486621617
 51
90.0
  0
ARC
  5
4320
102
{ACAD_REACTORS
330
4C5A
102
}
330
18
100
AcDbEntity
  8
OBJEKT
100
AcDbCircle
 10
501.6117683505316
 20
856.8364586090634
 30
0.0
 40
4.880471876513523
100
AcDbArc
 50
90.0
 51
148.2412551337838
  0
ARC
  5
4321
102
{ACAD_REACTORS
330
4C5A
102
}
330
18
100
AcDbEntity
  8
OBJEKT
100
AcDbCircle
 10
496.6117683505316
 20
859.9316079577162
 30
0.0
 40
1.0
100
AcDbArc
 50
211.7587448662141
 51
328.2412551337858
  0
ARC
  5
4322
102
{ACAD_REACTORS
330
4C5A
102
}
330
18
100
AcDbEntity
  8
OBJEKT
100
AcDbCircle
 10
491.6117683505317
 20
856.8364586090634
 30
0.0
 40
4.880471876513523
100
AcDbArc
 50
90.0
 51
148.2412551337838
  0
ARC
  5
4323
102
{ACAD_REACTORS
330
4780
102
}
330
18
100
AcDbEntity
  8
OBJEKT
100
AcDbCircle
 10
521.6117683505317
 20
856.8364586090634
 30
0.0
 40
4.880471876513523
100
AcDbArc
 50
31.75874486621613
 51
90.0
  0
ARC
  5
4324
102
{ACAD_REACTORS
330
4C5A
102
}
330
18
100
AcDbEntity
  8
OBJEKT
100
AcDbCircle
 10
511.6117683505317
 20
856.8364586090634
 30
0.0
 40
4.880471876513523
100
AcDbArc
 50
90.0
 51
148.2412551337838
  0
ARC
  5
4326
102
{ACAD_REACTORS
330
4780
102
}
330
18
100
AcDbEntity
  8
OBJEKT
100
AcDbCircle
 10
521.6117683505317
 20
856.8364586090634
 30
0.0
 40
4.880471876513523
100
AcDbArc
 50
90.0
 51
114.0222067351552
  0
ARC
  5
4327
102
{ACAD_REACTORS
330
4C5A
102
}
330
18
100
AcDbEntity
  8
OBJEKT
100
AcDbCircle
 10
511.6117683505317
 20
856.8364586090634
 30
0.0
 40
4.880471876513523
100
AcDbArc
 50
43.96466583196189
 51
90.0
  0
ARC
  5
4328
102
{ACAD_REACTORS
330
4C5A
102
}
330
18
100
AcDbEntity
  8
OBJEKT
100
AcDbCircle
 10
506.6117683505317
 20
859.9316079577162
 30
0.0
 40
1.0
100
AcDbArc
 50
211.7587448662142
 51
328.2412551337858
  0
ARC
  5
4329
102
{ACAD_REACTORS
330
4780
102
}
330
18
100
AcDbEntity
  8
OBJEKT
100
AcDbCircle
 10
531.6117683505317
 20
856.8364586090634
 30
0.0
 40
4.880471876513523
100
AcDbArc
 50
90.0
 51
148.2412551337838
  0
ARC
  5
432A
102
{ACAD_REACTORS
330
4780
102
}
330
18
100
AcDbEntity
  8
OBJEKT
100
AcDbCircle
 10
536.6117683505317
 20
859.9316079577162
 30
0.0
 40
1.0
100
AcDbArc
 50
211.7587448662141
 51
328.2412551337858
  0
ARC
  5
432B
102
{ACAD_REACTORS
330
4780
102
}
330
18
100
AcDbEntity
  8
OBJEKT
100
AcDbCircle
 10
531.6117683505317
 20
856.8364586090634
 30
0.0
 40
4.880471876513523
100
AcDbArc
 50
31.75874486621617
 51
90.0
  0
ARC
  5
432C
102
{ACAD_REACTORS
330
4780
102
}
330
18
100
AcDbEntity
  8
OBJEKT
100
AcDbCircle
 10
526.6117683505317
 20
859.9316079577162
 30
0.0
 40
1.0
100
AcDbArc
 50
211.7587448662142
 51
328.2412551337858
  0
ARC
  5
432E
102
{ACAD_REACTORS
330
4780
102
}
330
18
100
AcDbEntity
  8
OBJEKT
100
AcDbCircle
 10
546.6117683505317
 20
859.9316079577162
 30
0.0
 40
1.0
100
AcDbArc
 50
211.7587448662142
 51
328.2412551337858
  0
ARC
  5
4330
102
{ACAD_REACTORS
330
4780
102
}
330
18
100
AcDbEntity
  8
OBJEKT
100
AcDbCircle
 10
551.6117683505317
 20
856.8364586090634
 30
0.0
 40
4.880471876513523
100
AcDbArc
 50
90.0
 51
148.2412551337838
  0
ARC
  5
4331
102
{ACAD_REACTORS
330
4780
102
}
330
18
100
AcDbEntity
  8
OBJEKT
100
AcDbCircle
 10
541.6117683505317
 20
856.8364586090634
 30
0.0
 40
4.880471876513523
100
AcDbArc
 50
31.75874486621613
 51
90.0
  0
ARC
  5
4334
102
{ACAD_REACTORS
330
4780
102
}
330
18
100
AcDbEntity
  8
OBJEKT
100
AcDbCircle
 10
571.6117683505317
 20
856.8364586090634
 30
0.0
 40
4.880471876513523
100
AcDbArc
 50
90.0
 51
148.2412551337838
  0
ARC
  5
4335
102
{ACAD_REACTORS
330
4780
102
}
330
18
100
AcDbEntity
  8
OBJEKT
100
AcDbCircle
 10
561.6117683505317
 20
856.8364586090634
 30
0.0
 40
4.880471876513523
100
AcDbArc
 50
90.0
 51
148.2412551337838
  0
ARC
  5
4336
102
{ACAD_REACTORS
330
4780
102
}
330
18
100
AcDbEntity
  8
OBJEKT
100
AcDbCircle
 10
561.6117683505317
 20
856.8364586090634
 30
0.0
 40
4.880471876513523
100
AcDbArc
 50
31.75874486621613
 51
90.0
  0
ARC
  5
4337
102
{ACAD_REACTORS
330
4780
102
}
330
18
100
AcDbEntity
  8
OBJEKT
100
AcDbCircle
 10
566.6117683505317
 20
859.9316079577162
 30
0.0
 40
1.0
100
AcDbArc
 50
211.7587448662142
 51
328.2412551337858
  0
ARC
  5
4338
102
{ACAD_REACTORS
330
4780
102
}
330
18
100
AcDbEntity
  8
OBJEKT
100
AcDbCircle
 10
551.6117683505317
 20
856.8364586090634
 30
0.0
 40
4.880471876513523
100
AcDbArc
 50
31.75874486621617
 51
90.0
  0
ARC
  5
4339
102
{ACAD_REACTORS
330
4780
102
}
330
18
100
AcDbEntity
  8
OBJEKT
100
AcDbCircle
 10
556.6117683505317
 20
859.9316079577162
 30
0.0
 40
1.0
100
AcDbArc
 50
211.7587448662141
 51
328.2412551337858
  0
ARC
  5
433A
102
{ACAD_REACTORS
330
4780
102
}
330
18
100
AcDbEntity
  8
OBJEKT
100
AcDbCircle
 10
601.6117683505317
 20
856.8364586090634
 30
0.0
 40
4.880471876513523
100
AcDbArc
 50
31.75874486621613
 51
90.0
  0
ARC
  5
433B
102
{ACAD_REACTORS
330
4780
102
}
330
18
100
AcDbEntity
  8
OBJEKT
100
AcDbCircle
 10
591.6117683505317
 20
856.8364586090634
 30
0.0
 40
4.880471876513523
100
AcDbArc
 50
90.0
 51
148.2412551337838
  0
ARC
  5
433C
102
{ACAD_REACTORS
330
4780
102
}
330
18
100
AcDbEntity
  8
OBJEKT
100
AcDbCircle
 10
581.6117683505317
 20
856.8364586090634
 30
0.0
 40
4.880471876513523
100
AcDbArc
 50
90.0
 51
148.2412551337838
  0
ARC
  5
433D
102
{ACAD_REACTORS
330
4780
102
}
330
18
100
AcDbEntity
  8
OBJEKT
100
AcDbCircle
 10
581.6117683505317
 20
856.8364586090634
 30
0.0
 40
4.880471876513523
100
AcDbArc
 50
31.75874486621613
 51
90.0
  0
ARC
  5
433E
102
{ACAD_REACTORS
330
4780
102
}
330
18
100
AcDbEntity
  8
OBJEKT
100
AcDbCircle
 10
586.6117683505317
 20
859.9316079577162
 30
0.0
 40
1.0
100
AcDbArc
 50
211.7587448662142
 51
328.2412551337858
  0
ARC
  5
433F
102
{ACAD_REACTORS
330
4780
102
}
330
18
100
AcDbEntity
  8
OBJEKT
100
AcDbCircle
 10
571.6117683505317
 20
856.8364586090634
 30
0.0
 40
4.880471876513523
100
AcDbArc
 50
31.75874486621617
 51
90.0
  0
ARC
  5
4340
102
{ACAD_REACTORS
330
4780
102
}
330
18
100
AcDbEntity
  8
OBJEKT
100
AcDbCircle
 10
576.6117683505317
 20
859.9316079577162
 30
0.0
 40
1.0
100
AcDbArc
 50
211.7587448662141
 51
328.2412551337858
  0
ARC
  5
4341
102
{ACAD_REACTORS
330
4780
102
}
330
18
100
AcDbEntity
  8
OBJEKT
100
AcDbCircle
 10
596.6117683505317
 20
859.9316079577162
 30
0.0
 40
1.0
100
AcDbArc
 50
211.7587448662141
 51
328.2412551337858
  0
ARC
  5
4342
102
{ACAD_REACTORS
330
4780
102
}
330
18
100
AcDbEntity
  8
OBJEKT
100
AcDbCircle
 10
591.6117683505317
 20
856.8364586090634
 30
0.0
 40
4.880471876513523
100
AcDbArc
 50
31.75874486621617
 51
90.0
  0
ARC
  5
4343
102
{ACAD_REACTORS
330
4780
102
}
330
18
100
AcDbEntity
  8
OBJEKT
100
AcDbCircle
 10
601.6117683505317
 20
856.8364586090634
 30
0.0
 40
4.880471876513523
100
AcDbArc
 50
90.0
 51
148.2412551337838
  0
ARC
  5
4344
102
{ACAD_REACTORS
330
4780
102
}
330
18
100
AcDbEntity
  8
OBJEKT
100
AcDbCircle
 10
606.6117683505317
 20
859.9316079577162
 30
0.0
 40
1.0
100
AcDbArc
 50
211.7587448662142
 51
328.2412551337858
  0
ARC
  5
4345
102
{ACAD_REACTORS
330
4780
102
}
330
18
100
AcDbEntity
  8
OBJEKT
100
AcDbCircle
 10
611.6117683505317
 20
856.8364586090634
 30
0.0
 40
4.880471876513523
100
AcDbArc
 50
90.0
 51
148.2412551337838
  0
ARC
  5
4347
102
{ACAD_REACTORS
330
4780
102
}
330
18
100
AcDbEntity
  8
OBJEKT
100
AcDbCircle
 10
621.6117683505317
 20
856.8364586090634
 30
0.0
 40
4.880471876513523
100
AcDbArc
 50
31.75874486621613
 51
90.0
  0
ARC
  5
4348
102
{ACAD_REACTORS
330
4780
102
}
330
18
100
AcDbEntity
  8
OBJEKT
100
AcDbCircle
 10
616.6117683505317
 20
859.9316079577162
 30
0.0
 40
1.0
100
AcDbArc
 50
211.7587448662141
 51
328.2412551337858
  0
ARC
  5
4349
102
{ACAD_REACTORS
330
4780
102
}
330
18
100
AcDbEntity
  8
OBJEKT
100
AcDbCircle
 10
611.6117683505317
 20
856.8364586090634
 30
0.0
 40
4.880471876513523
100
AcDbArc
 50
31.75874486621617
 51
90.0
  0
ARC
  5
434A
102
{ACAD_REACTORS
330
4780
102
}
330
18
100
AcDbEntity
  8
OBJEKT
100
AcDbCircle
 10
621.6117683505317
 20
856.8364586090634
 30
0.0
 40
4.880471876513523
100
AcDbArc
 50
90.0
 51
148.2412551337838
  0
ARC
  5
434B
102
{ACAD_REACTORS
330
4780
102
}
330
18
100
AcDbEntity
  8
OBJEKT
100
AcDbCircle
 10
631.6117683505317
 20
856.8364586090634
 30
0.0
 40
4.880471876513523
100
AcDbArc
 50
31.75874486621617
 51
90.0
  0
ARC
  5
434C
102
{ACAD_REACTORS
330
4780
102
}
330
18
100
AcDbEntity
  8
OBJEKT
100
AcDbCircle
 10
636.6117683505317
 20
859.9316079577162
 30
0.0
 40
1.0
100
AcDbArc
 50
211.7587448662141
 51
244.1694581939418
  0
ARC
  5
434D
102
{ACAD_REACTORS
330
4780
102
}
330
18
100
AcDbEntity
  8
OBJEKT
100
AcDbCircle
 10
626.6117683505317
 20
859.9316079577162
 30
0.0
 40
1.0
100
AcDbArc
 50
211.7587448662142
 51
328.2412551337858
  0
ARC
  5
434E
102
{ACAD_REACTORS
330
4780
102
}
330
18
100
AcDbEntity
  8
OBJEKT
100
AcDbCircle
 10
631.6117683505317
 20
856.8364586090634
 30
0.0
 40
4.880471876513523
100
AcDbArc
 50
90.0
 51
148.2412551337838
  0
LINE
  5
4352
102
{ACAD_REACTORS
330
4780
102
}
330
18
100
AcDbEntity
  8
OBJEKT
100
AcDbLine
 10
636.1760573935266
 20
859.0315213163613
 30
-0.0000000000002902
 11
636.1760573935266
 21
742.8023396547928
 31
0.0
  0
LINE
  5
4354
102
{ACAD_REACTORS
330
4780
102
}
330
18
100
AcDbEntity
  8
OBJEKT
100
AcDbLine
 10
636.1760573935266
 20
745.9169304855769
 30
-0.0000000000002902
 11
522.1410513480126
 21
745.9169304855769
 31
-0.0000000000002902
  0
ARC
  5
4355
102
{ACAD_REACTORS
330
4780
102
}
330
18
100
AcDbEntity
  8
OBJEKT
100
AcDbCircle
 10
601.6117683505317
 20
744.9974023620906
 30
0.0
 40
4.880471876513523
100
AcDbArc
 50
211.7587448662161
 51
270.0
  0
ARC
  5
436B
102
{ACAD_REACTORS
330
4780
102
}
330
18
100
AcDbEntity
  8
OBJEKT
100
AcDbCircle
 10
531.6117683505317
 20
744.9974023620906
 30
0.0
 40
4.880471876513523
100
AcDbArc
 50
211.7587448662161
 51
270.0
  0
ARC
  5
436C
102
{ACAD_REACTORS
330
4C5A
102
}
330
18
100
AcDbEntity
  8
OBJEKT
100
AcDbCircle
 10
491.6117683505317
 20
744.9974023620906
 30
0.0
 40
4.880471876513523
100
AcDbArc
 50
270.0
 51
328.2412551337838
  0
ARC
  5
4373
330
18
100
AcDbEntity
  8
OBJEKT
100
AcDbCircle
 10
486.6117683505317
 20
741.9022530134377
 30
0.0
 40
1.0
100
AcDbArc
 50
31.75874486621415
 51
148.2412551337858
  0
ARC
  5
4375
102
{ACAD_REACTORS
330
4C5A
102
}
330
18
100
AcDbEntity
  8
OBJEKT
100
AcDbCircle
 10
491.6117683505317
 20
744.9974023620906
 30
0.0
 40
4.880471876513523
100
AcDbArc
 50
211.7587448662161
 51
270.0
  0
ARC
  5
4376
102
{ACAD_REACTORS
330
4C5A
102
}
330
18
100
AcDbEntity
  8
OBJEKT
100
AcDbCircle
 10
511.6117683505317
 20
744.9974023620906
 30
0.0
 40
4.880471876513523
100
AcDbArc
 50
270.0
 51
307.1759931037871
  0
ARC
  5
4377
102
{ACAD_REACTORS
330
4C5A
102
}
330
18
100
AcDbEntity
  8
OBJEKT
100
AcDbCircle
 10
501.6117683505316
 20
744.9974023620906
 30
0.0
 40
4.880471876513523
100
AcDbArc
 50
270.0
 51
328.2412551337838
  0
ARC
  5
4378
102
{ACAD_REACTORS
330
4C5A
102
}
330
18
100
AcDbEntity
  8
OBJEKT
100
AcDbCircle
 10
506.6117683505317
 20
741.9022530134377
 30
0.0
 40
1.0
100
AcDbArc
 50
31.75874486621415
 51
148.2412551337858
  0
ARC
  5
4379
102
{ACAD_REACTORS
330
4C5A
102
}
330
18
100
AcDbEntity
  8
OBJEKT
100
AcDbCircle
 10
511.6117683505317
 20
744.9974023620906
 30
0.0
 40
4.880471876513523
100
AcDbArc
 50
211.7587448662161
 51
270.0
  0
ARC
  5
437A
102
{ACAD_REACTORS
330
4C5A
102
}
330
18
100
AcDbEntity
  8
OBJEKT
100
AcDbCircle
 10
496.6117683505316
 20
741.9022530134377
 30
0.0
 40
1.0
100
AcDbArc
 50
31.75874486621419
 51
148.2412551337858
  0
ARC
  5
437B
102
{ACAD_REACTORS
330
4C5A
102
}
330
18
100
AcDbEntity
  8
OBJEKT
100
AcDbCircle
 10
501.6117683505316
 20
744.9974023620906
 30
0.0
 40
4.880471876513523
100
AcDbArc
 50
211.7587448662161
 51
270.0
  0
ARC
  5
437C
102
{ACAD_REACTORS
330
4780
102
}
330
18
100
AcDbEntity
  8
OBJEKT
100
AcDbCircle
 10
526.6117683505317
 20
741.9022530134377
 30
0.0
 40
1.0
100
AcDbArc
 50
31.75874486621415
 51
148.2412551337858
  0
ARC
  5
437E
102
{ACAD_REACTORS
330
4780
102
}
330
18
100
AcDbEntity
  8
OBJEKT
100
AcDbCircle
 10
521.6117683505317
 20
744.9974023620906
 30
0.0
 40
4.880471876513523
100
AcDbArc
 50
270.0
 51
328.2412551337838
  0
ARC
  5
437F
102
{ACAD_REACTORS
330
4780
102
}
330
18
100
AcDbEntity
  8
OBJEKT
100
AcDbCircle
 10
561.6117683505317
 20
744.9974023620906
 30
0.0
 40
4.880471876513523
100
AcDbArc
 50
270.0
 51
328.2412551337838
  0
ARC
  5
4380
102
{ACAD_REACTORS
330
4780
102
}
330
18
100
AcDbEntity
  8
OBJEKT
100
AcDbCircle
 10
551.6117683505317
 20
744.9974023620906
 30
0.0
 40
4.880471876513523
100
AcDbArc
 50
211.7587448662161
 51
270.0
  0
ARC
  5
4381
102
{ACAD_REACTORS
330
4780
102
}
330
18
100
AcDbEntity
  8
OBJEKT
100
AcDbCircle
 10
541.6117683505317
 20
744.9974023620906
 30
0.0
 40
4.880471876513523
100
AcDbArc
 50
211.7587448662161
 51
270.0
  0
ARC
  5
4382
102
{ACAD_REACTORS
330
4780
102
}
330
18
100
AcDbEntity
  8
OBJEKT
100
AcDbCircle
 10
541.6117683505317
 20
744.9974023620906
 30
0.0
 40
4.880471876513523
100
AcDbArc
 50
270.0
 51
328.2412551337838
  0
ARC
  5
4383
102
{ACAD_REACTORS
330
4780
102
}
330
18
100
AcDbEntity
  8
OBJEKT
100
AcDbCircle
 10
546.6117683505317
 20
741.9022530134377
 30
0.0
 40
1.0
100
AcDbArc
 50
31.75874486621415
 51
148.2412551337858
  0
ARC
  5
4384
102
{ACAD_REACTORS
330
4780
102
}
330
18
100
AcDbEntity
  8
OBJEKT
100
AcDbCircle
 10
531.6117683505317
 20
744.9974023620906
 30
0.0
 40
4.880471876513523
100
AcDbArc
 50
270.0
 51
328.2412551337838
  0
ARC
  5
4385
102
{ACAD_REACTORS
330
4780
102
}
330
18
100
AcDbEntity
  8
OBJEKT
100
AcDbCircle
 10
536.6117683505317
 20
741.9022530134377
 30
0.0
 40
1.0
100
AcDbArc
 50
31.75874486621419
 51
148.2412551337858
  0
ARC
  5
4386
102
{ACAD_REACTORS
330
4780
102
}
330
18
100
AcDbEntity
  8
OBJEKT
100
AcDbCircle
 10
556.6117683505317
 20
741.9022530134377
 30
0.0
 40
1.0
100
AcDbArc
 50
31.75874486621419
 51
148.2412551337858
  0
ARC
  5
4387
102
{ACAD_REACTORS
330
4780
102
}
330
18
100
AcDbEntity
  8
OBJEKT
100
AcDbCircle
 10
551.6117683505317
 20
744.9974023620906
 30
0.0
 40
4.880471876513523
100
AcDbArc
 50
270.0
 51
328.2412551337838
  0
ARC
  5
4388
102
{ACAD_REACTORS
330
4780
102
}
330
18
100
AcDbEntity
  8
OBJEKT
100
AcDbCircle
 10
561.6117683505317
 20
744.9974023620906
 30
0.0
 40
4.880471876513523
100
AcDbArc
 50
211.7587448662161
 51
270.0
  0
ARC
  5
4389
102
{ACAD_REACTORS
330
4780
102
}
330
18
100
AcDbEntity
  8
OBJEKT
100
AcDbCircle
 10
581.6117683505317
 20
744.9974023620906
 30
0.0
 40
4.880471876513523
100
AcDbArc
 50
270.0
 51
328.2412551337838
  0
ARC
  5
438A
102
{ACAD_REACTORS
330
4780
102
}
330
18
100
AcDbEntity
  8
OBJEKT
100
AcDbCircle
 10
576.6117683505317
 20
741.9022530134377
 30
0.0
 40
1.0
100
AcDbArc
 50
31.75874486621419
 51
148.2412551337858
  0
ARC
  5
438B
102
{ACAD_REACTORS
330
4780
102
}
330
18
100
AcDbEntity
  8
OBJEKT
100
AcDbCircle
 10
571.6117683505317
 20
744.9974023620906
 30
0.0
 40
4.880471876513523
100
AcDbArc
 50
270.0
 51
328.2412551337838
  0
ARC
  5
438C
102
{ACAD_REACTORS
330
4780
102
}
330
18
100
AcDbEntity
  8
OBJEKT
100
AcDbCircle
 10
581.6117683505317
 20
744.9974023620906
 30
0.0
 40
4.880471876513523
100
AcDbArc
 50
211.7587448662161
 51
270.0
  0
ARC
  5
438D
102
{ACAD_REACTORS
330
4780
102
}
330
18
100
AcDbEntity
  8
OBJEKT
100
AcDbCircle
 10
566.6117683505317
 20
741.9022530134377
 30
0.0
 40
1.0
100
AcDbArc
 50
31.75874486621415
 51
148.2412551337858
  0
ARC
  5
438E
102
{ACAD_REACTORS
330
4780
102
}
330
18
100
AcDbEntity
  8
OBJEKT
100
AcDbCircle
 10
571.6117683505317
 20
744.9974023620906
 30
0.0
 40
4.880471876513523
100
AcDbArc
 50
211.7587448662161
 51
270.0
  0
ARC
  5
438F
102
{ACAD_REACTORS
330
4780
102
}
330
18
100
AcDbEntity
  8
OBJEKT
100
AcDbCircle
 10
591.6117683505317
 20
744.9974023620906
 30
0.0
 40
4.880471876513523
100
AcDbArc
 50
270.0
 51
328.2412551337838
  0
ARC
  5
4390
102
{ACAD_REACTORS
330
4780
102
}
330
18
100
AcDbEntity
  8
OBJEKT
100
AcDbCircle
 10
596.6117683505317
 20
741.9022530134377
 30
0.0
 40
1.0
100
AcDbArc
 50
31.75874486621419
 51
148.2412551337858
  0
ARC
  5
4391
102
{ACAD_REACTORS
330
4780
102
}
330
18
100
AcDbEntity
  8
OBJEKT
100
AcDbCircle
 10
586.6117683505317
 20
741.9022530134377
 30
0.0
 40
1.0
100
AcDbArc
 50
31.75874486621415
 51
148.2412551337858
  0
ARC
  5
4392
102
{ACAD_REACTORS
330
4780
102
}
330
18
100
AcDbEntity
  8
OBJEKT
100
AcDbCircle
 10
591.6117683505317
 20
744.9974023620906
 30
0.0
 40
4.880471876513523
100
AcDbArc
 50
211.7587448662161
 51
270.0
  0
ARC
  5
4393
102
{ACAD_REACTORS
330
4780
102
}
330
18
100
AcDbEntity
  8
OBJEKT
100
AcDbCircle
 10
631.6117683505317
 20
744.9974023620906
 30
0.0
 40
4.880471876513523
100
AcDbArc
 50
270.0
 51
328.2412551337838
  0
ARC
  5
4394
102
{ACAD_REACTORS
330
4780
102
}
330
18
100
AcDbEntity
  8
OBJEKT
100
AcDbCircle
 10
621.6117683505317
 20
744.9974023620906
 30
0.0
 40
4.880471876513523
100
AcDbArc
 50
211.7587448662161
 51
270.0
  0
ARC
  5
4395
102
{ACAD_REACTORS
330
4780
102
}
330
18
100
AcDbEntity
  8
OBJEKT
100
AcDbCircle
 10
611.6117683505317
 20
744.9974023620906
 30
0.0
 40
4.880471876513523
100
AcDbArc
 50
270.0
 51
328.2412551337838
  0
ARC
  5
4396
102
{ACAD_REACTORS
330
4780
102
}
330
18
100
AcDbEntity
  8
OBJEKT
100
AcDbCircle
 10
616.6117683505317
 20
741.9022530134377
 30
0.0
 40
1.0
100
AcDbArc
 50
31.75874486621419
 51
148.2412551337858
  0
ARC
  5
4397
102
{ACAD_REACTORS
330
4780
102
}
330
18
100
AcDbEntity
  8
OBJEKT
100
AcDbCircle
 10
611.6117683505317
 20
744.9974023620906
 30
0.0
 40
4.880471876513523
100
AcDbArc
 50
211.7587448662161
 51
270.0
  0
ARC
  5
4398
102
{ACAD_REACTORS
330
4780
102
}
330
18
100
AcDbEntity
  8
OBJEKT
100
AcDbCircle
 10
606.6117683505317
 20
741.9022530134377
 30
0.0
 40
1.0
100
AcDbArc
 50
31.75874486621415
 51
148.2412551337858
  0
ARC
  5
4399
102
{ACAD_REACTORS
330
4780
102
}
330
18
100
AcDbEntity
  8
OBJEKT
100
AcDbCircle
 10
601.6117683505317
 20
744.9974023620906
 30
0.0
 40
4.880471876513523
100
AcDbArc
 50
270.0
 51
328.2412551337838
  0
ARC
  5
439A
102
{ACAD_REACTORS
330
4780
102
}
330
18
100
AcDbEntity
  8
OBJEKT
100
AcDbCircle
 10
631.6117683505317
 20
744.9974023620906
 30
0.0
 40
4.880471876513523
100
AcDbArc
 50
211.7587448662161
 51
270.0
  0
ARC
  5
439B
102
{ACAD_REACTORS
330
4780
102
}
330
18
100
AcDbEntity
  8
OBJEKT
100
AcDbCircle
 10
626.6117683505317
 20
741.9022530134377
 30
0.0
 40
1.0
100
AcDbArc
 50
31.75874486621415
 51
148.2412551337858
  0
ARC
  5
439C
102
{ACAD_REACTORS
330
4780
102
}
330
18
100
AcDbEntity
  8
OBJEKT
100
AcDbCircle
 10
621.6117683505317
 20
744.9974023620906
 30
0.0
 40
4.880471876513523
100
AcDbArc
 50
270.0
 51
328.2412551337838
  0
ARC
  5
439D
102
{ACAD_REACTORS
330
4780
102
}
330
18
100
AcDbEntity
  8
OBJEKT
100
AcDbCircle
 10
636.6117683505317
 20
741.9022530134377
 30
0.0
 40
1.0
100
AcDbArc
 50
115.8305418060582
 51
148.2412551337858
  0
ARC
  5
439E
102
{ACAD_REACTORS
330
4780
102
}
330
18
100
AcDbEntity
  8
OBJEKT
100
AcDbCircle
 10
521.3383637148831
 20
742.3985533748178
 30
0.0
 40
2.297945409164686
100
AcDbArc
 50
225.3849884498383
 51
276.8331158714119
  0
LINE
  5
45F5
102
{ACAD_REACTORS
330
4C5A
102
}
330
18
100
AcDbEntity
  8
OBJEKT
100
AcDbLine
 10
396.3983513184405
 20
862.3214138341378
 30
0.0000000000002826
 11
396.3983513184405
 21
859.2895269693979
 31
0.0
  0
LINE
  5
45F6
102
{ACAD_REACTORS
330
4C5A
102
}
330
18
100
AcDbEntity
  8
OBJEKT
100
AcDbLine
 10
517.1410513480126
 20
855.9169304855769
 30
-0.0000000000002902
 11
476.1214283810422
 21
855.9169304855769
 31
0.0
  0
ARC
  5
45F7
102
{ACAD_REACTORS
330
4BD7
330
4C5A
102
}
330
18
100
AcDbEntity
  8
OBJEKT
100
AcDbCircle
 10
472.9314910293691
 20
855.0888731620462
 30
0.0
 40
3.295660668007605
100
AcDbArc
 50
14.55189865275753
 51
41.8523409067692
  0
ARC
  5
45F9
102
{ACAD_REACTORS
330
4C5A
102
}
330
18
100
AcDbEntity
  8
OBJEKT
100
AcDbCircle
 10
461.5830744139309
 20
741.6248058782699
 30
0.0000000000002826
 40
4.880471876513523
100
AcDbArc
 50
211.7587448662161
 51
270.0
  0
ARC
  5
45FA
102
{ACAD_REACTORS
330
4C5A
102
}
330
18
100
AcDbEntity
  8
OBJEKT
100
AcDbCircle
 10
456.5830744139311
 20
738.5296565296169
 30
0.0000000000002826
 40
1.0
100
AcDbArc
 50
31.75874486621419
 51
148.2412551337858
  0
ARC
  5
45FB
102
{ACAD_REACTORS
330
4C5A
102
}
330
18
100
AcDbEntity
  8
OBJEKT
100
AcDbCircle
 10
421.5830744139311
 20
741.6248058782699
 30
0.0000000000002826
 40
4.880471876513523
100
AcDbArc
 50
270.0
 51
328.2412551337838
  0
LINE
  5
45FC
102
{ACAD_REACTORS
330
4C5A
102
}
330
18
100
AcDbEntity
  8
OBJEKT
100
AcDbLine
 10
396.3983513184405
 20
739.5124471370163
 30
0.0000000000002826
 11
396.3983513184405
 21
742.5443340017563
 31
0.0
  0
ARC
  5
45FD
102
{ACAD_REACTORS
330
4C5A
102
}
330
18
100
AcDbEntity
  8
OBJEKT
100
AcDbCircle
 10
401.5830744139311
 20
741.6248058782699
 30
0.0000000000002826
 40
4.880471876513523
100
AcDbArc
 50
270.0
 51
328.2412551337838
  0
ARC
  5
45FE
102
{ACAD_REACTORS
330
4C5A
102
}
330
18
100
AcDbEntity
  8
OBJEKT
100
AcDbCircle
 10
396.5830744139311
 20
738.5296565296169
 30
0.0000000000002826
 40
1.0
100
AcDbArc
 50
31.75874486621419
 51
100.6449886943233
  0
ARC
  5
45FF
102
{ACAD_REACTORS
330
4C5A
102
}
330
18
100
AcDbEntity
  8
OBJEKT
100
AcDbCircle
 10
401.5830744139311
 20
741.6248058782699
 30
0.0000000000002826
 40
4.880471876513523
100
AcDbArc
 50
211.7587448662161
 51
270.0
  0
ARC
  5
4600
102
{ACAD_REACTORS
330
4C5A
102
}
330
18
100
AcDbEntity
  8
OBJEKT
100
AcDbCircle
 10
406.5830744139311
 20
738.5296565296169
 30
0.0000000000002826
 40
1.0
100
AcDbArc
 50
31.75874486621415
 51
148.2412551337858
  0
ARC
  5
4601
102
{ACAD_REACTORS
330
4C5A
102
}
330
18
100
AcDbEntity
  8
OBJEKT
100
AcDbCircle
 10
411.5830744139309
 20
741.6248058782699
 30
0.0000000000002826
 40
4.880471876513523
100
AcDbArc
 50
211.7587448662161
 51
270.0
  0
ARC
  5
4602
102
{ACAD_REACTORS
330
4C5A
102
}
330
18
100
AcDbEntity
  8
OBJEKT
100
AcDbCircle
 10
416.5830744139311
 20
738.5296565296169
 30
0.0000000000002826
 40
1.0
100
AcDbArc
 50
31.75874486621419
 51
148.2412551337858
  0
ARC
  5
4603
102
{ACAD_REACTORS
330
4C5A
102
}
330
18
100
AcDbEntity
  8
OBJEKT
100
AcDbCircle
 10
421.5830744139311
 20
741.6248058782699
 30
0.0000000000002826
 40
4.880471876513523
100
AcDbArc
 50
211.7587448662161
 51
270.0
  0
ARC
  5
4604
102
{ACAD_REACTORS
330
4C5A
102
}
330
18
100
AcDbEntity
  8
OBJEKT
100
AcDbCircle
 10
411.5830744139309
 20
741.6248058782699
 30
0.0000000000002826
 40
4.880471876513523
100
AcDbArc
 50
270.0
 51
328.2412551337838
  0
ARC
  5
4605
102
{ACAD_REACTORS
330
4C5A
102
}
330
18
100
AcDbEntity
  8
OBJEKT
100
AcDbCircle
 10
441.5830744139311
 20
741.6248058782699
 30
0.0000000000002826
 40
4.880471876513523
100
AcDbArc
 50
211.7587448662161
 51
270.0
  0
ARC
  5
4606
102
{ACAD_REACTORS
330
4C5A
102
}
330
18
100
AcDbEntity
  8
OBJEKT
100
AcDbCircle
 10
426.5830744139311
 20
738.5296565296169
 30
0.0000000000002826
 40
1.0
100
AcDbArc
 50
31.75874486621415
 51
148.2412551337858
  0
ARC
  5
4607
102
{ACAD_REACTORS
330
4C5A
102
}
330
18
100
AcDbEntity
  8
OBJEKT
100
AcDbCircle
 10
431.5830744139311
 20
741.6248058782699
 30
0.0000000000002826
 40
4.880471876513523
100
AcDbArc
 50
270.0
 51
328.2412551337838
  0
ARC
  5
4608
102
{ACAD_REACTORS
330
4C5A
102
}
330
18
100
AcDbEntity
  8
OBJEKT
100
AcDbCircle
 10
436.5830744139309
 20
738.5296565296169
 30
0.0000000000002826
 40
1.0
100
AcDbArc
 50
31.75874486621419
 51
148.2412551337858
  0
ARC
  5
4609
102
{ACAD_REACTORS
330
4C5A
102
}
330
18
100
AcDbEntity
  8
OBJEKT
100
AcDbCircle
 10
431.5830744139311
 20
741.6248058782699
 30
0.0000000000002826
 40
4.880471876513523
100
AcDbArc
 50
211.7587448662161
 51
270.0
  0
ARC
  5
460A
102
{ACAD_REACTORS
330
4C5A
102
}
330
18
100
AcDbEntity
  8
OBJEKT
100
AcDbCircle
 10
446.5830744139311
 20
738.5296565296169
 30
0.0000000000002826
 40
1.0
100
AcDbArc
 50
31.75874486621415
 51
148.2412551337858
  0
ARC
  5
460B
102
{ACAD_REACTORS
330
4C5A
102
}
330
18
100
AcDbEntity
  8
OBJEKT
100
AcDbCircle
 10
441.5830744139311
 20
741.6248058782699
 30
0.0000000000002826
 40
4.880471876513523
100
AcDbArc
 50
270.0
 51
328.2412551337838
  0
ARC
  5
460C
102
{ACAD_REACTORS
330
4C5A
102
}
330
18
100
AcDbEntity
  8
OBJEKT
100
AcDbCircle
 10
451.5830744139311
 20
741.6248058782699
 30
0.0000000000002826
 40
4.880471876513523
100
AcDbArc
 50
270.0
 51
328.2412551337838
  0
ARC
  5
460D
102
{ACAD_REACTORS
330
4C5A
102
}
330
18
100
AcDbEntity
  8
OBJEKT
100
AcDbCircle
 10
451.5830744139311
 20
741.6248058782699
 30
0.0000000000002826
 40
4.880471876513523
100
AcDbArc
 50
211.7587448662161
 51
270.0
  0
ARC
  5
460E
102
{ACAD_REACTORS
330
4C5A
102
}
330
18
100
AcDbEntity
  8
OBJEKT
100
AcDbCircle
 10
479.2701619715761
 20
744.4700765998066
 30
0.0000000000002826
 40
6.804782393109576
100
AcDbArc
 50
289.8704853678483
 51
342.5419982325605
  0
ARC
  5
4610
102
{ACAD_REACTORS
330
4C5A
102
}
330
18
100
AcDbEntity
  8
OBJEKT
100
AcDbCircle
 10
486.6117683505317
 20
741.9022530134377
 30
0.0
 40
1.0
100
AcDbArc
 50
31.75874486621415
 51
148.2412551337858
  0
ARC
  5
4611
102
{ACAD_REACTORS
330
4C5A
102
}
330
18
100
AcDbEntity
  8
OBJEKT
100
AcDbCircle
 10
471.5830744139311
 20
741.6248058782699
 30
0.0000000000002826
 40
4.880471876513523
100
AcDbArc
 50
270.0
 51
328.2412551337838
  0
ARC
  5
4612
102
{ACAD_REACTORS
330
4C5A
102
}
330
18
100
AcDbEntity
  8
OBJEKT
100
AcDbCircle
 10
461.5830744139309
 20
741.6248058782699
 30
0.0000000000002826
 40
4.880471876513523
100
AcDbArc
 50
270.0
 51
328.2412551337838
  0
ARC
  5
4613
102
{ACAD_REACTORS
330
4C5A
102
}
330
18
100
AcDbEntity
  8
OBJEKT
100
AcDbCircle
 10
471.5830744139311
 20
741.6248058782699
 30
0.0000000000002826
 40
4.880471876513523
100
AcDbArc
 50
211.7587448662161
 51
270.0
  0
ARC
  5
4614
102
{ACAD_REACTORS
330
4C5A
102
}
330
18
100
AcDbEntity
  8
OBJEKT
100
AcDbCircle
 10
466.5830744139311
 20
738.5296565296169
 30
0.0000000000002826
 40
1.0
100
AcDbArc
 50
31.75874486621415
 51
148.2412551337858
  0
ARC
  5
4615
102
{ACAD_REACTORS
330
4C5A
102
}
330
18
100
AcDbEntity
  8
OBJEKT
100
AcDbCircle
 10
480.2741771233471
 20
741.7882994765957
 30
0.0000000000002826
 40
3.941545234613068
100
AcDbArc
 50
223.8843585763217
 51
289.3949014375948
  0
ARC
  5
4616
102
{ACAD_REACTORS
330
4C5A
102
}
330
18
100
AcDbEntity
  8
OBJEKT
100
AcDbCircle
 10
476.5830744139311
 20
738.5296565296169
 30
0.0000000000002826
 40
1.0
100
AcDbArc
 50
31.75874486621419
 51
148.2412551337858
  0
LINE
  5
4617
102
{ACAD_REACTORS
330
4C5A
102
}
330
18
100
AcDbEntity
  8
OBJEKT
100
AcDbLine
 10
512.3078000527857
 20
745.9169304855769
 30
-0.0000000000002548
 11
476.1214283810422
 21
745.9169304855769
 31
0.0
  0
HATCH
  5
4780
330
18
100
AcDbEntity
  8
SCHRAFFUR
100
AcDbHatch
 10
0.0
 20
0.0
 30
0.0
210
0.0
220
0.0
230
1.0
  2
ANSI31
 70
     0
 71
     1
 91
        2
 92
        5
 93
       40
 72
     1
 10
522.1410513480126
 20
745.9169304855769
 11
517.3076785135076
 21
745.9169304855769
 72
     4
 94
        3
 73
     0
 74
     0
 95
        8
 96
        4
 40
121.8843764322744
 40
121.8843764322744
 40
121.8843764322744
 40
121.8843764322744
 40
127.1910887483511
 40
127.1910887483511
 40
127.1910887483511
 40
127.1910887483511
 10
517.3076785135101
 20
745.9169304855712
 10
518.0994092421648
 20
744.1995969692093
 10
518.911917471282
 20
742.4811880788118
 10
519.7244257003991
 20
740.762779188414
 72
     2
 10
521.3383637148831
 20
742.3985533748178
 40
2.297945409164694
 50
225.3849884498383
 51
276.8331158714236
 73
     1
 72
     2
 10
521.6117683505318
 20
744.9974023620907
 40
4.880471876513571
 50
270.000000000004
 51
328.2412551337824
 73
     1
 72
     2
 10
526.6117683505317
 20
741.9022530134376
 40
1.000000000000049
 50
211.7587448662214
 51
328.2412551337821
 73
     0
 72
     2
 10
531.6117683505317
 20
744.9974023620907
 40
4.880471876513571
 50
211.7587448662176
 51
270.0
 73
     1
 72
     2
 10
531.6117683505317
 20
744.9974023620907
 40
4.880471876513573
 50
270.0
 51
328.2412551337831
 73
     1
 72
     2
 10
536.6117683505317
 20
741.9022530134376
 40
1.000000000000051
 50
211.7587448662214
 51
328.2412551337821
 73
     0
 72
     2
 10
541.6117683505317
 20
744.9974023620907
 40
4.880471876513568
 50
211.7587448662176
 51
270.0
 73
     1
 72
     2
 10
541.6117683505317
 20
744.9974023620907
 40
4.880471876513573
 50
270.0
 51
328.2412551337831
 73
     1
 72
     2
 10
546.6117683505317
 20
741.9022530134376
 40
1.000000000000049
 50
211.7587448662214
 51
328.2412551337821
 73
     0
 72
     2
 10
551.6117683505317
 20
744.9974023620907
 40
4.880471876513571
 50
211.7587448662176
 51
270.0
 73
     1
 72
     2
 10
551.6117683505317
 20
744.9974023620907
 40
4.880471876513573
 50
270.0
 51
328.2412551337831
 73
     1
 72
     2
 10
556.6117683505317
 20
741.9022530134376
 40
1.000000000000051
 50
211.7587448662214
 51
328.2412551337821
 73
     0
 72
     2
 10
561.6117683505317
 20
744.9974023620907
 40
4.880471876513568
 50
211.7587448662176
 51
270.0
 73
     1
 72
     2
 10
561.6117683505317
 20
744.9974023620907
 40
4.880471876513573
 50
270.0
 51
328.2412551337831
 73
     1
 72
     2
 10
566.6117683505317
 20
741.9022530134376
 40
1.000000000000049
 50
211.7587448662214
 51
328.2412551337821
 73
     0
 72
     2
 10
571.6117683505317
 20
744.9974023620907
 40
4.880471876513571
 50
211.7587448662176
 51
270.0
 73
     1
 72
     2
 10
571.6117683505317
 20
744.9974023620907
 40
4.880471876513573
 50
270.0
 51
328.2412551337831
 73
     1
 72
     2
 10
576.6117683505317
 20
741.9022530134376
 40
1.000000000000051
 50
211.7587448662214
 51
328.2412551337821
 73
     0
 72
     2
 10
581.6117683505317
 20
744.9974023620907
 40
4.880471876513568
 50
211.7587448662176
 51
270.0
 73
     1
 72
     2
 10
581.6117683505317
 20
744.9974023620907
 40
4.880471876513573
 50
270.0
 51
328.2412551337831
 73
     1
 72
     2
 10
586.6117683505317
 20
741.9022530134376
 40
1.000000000000049
 50
211.7587448662214
 51
328.2412551337821
 73
     0
 72
     2
 10
591.6117683505317
 20
744.9974023620907
 40
4.880471876513571
 50
211.7587448662176
 51
270.0
 73
     1
 72
     2
 10
591.6117683505317
 20
744.9974023620907
 40
4.880471876513573
 50
270.0
 51
328.2412551337831
 73
     1
 72
     2
 10
596.6117683505317
 20
741.9022530134376
 40
1.000000000000051
 50
211.7587448662214
 51
328.2412551337821
 73
     0
 72
     2
 10
601.6117683505317
 20
744.9974023620907
 40
4.880471876513568
 50
211.7587448662176
 51
270.0
 73
     1
 72
     2
 10
601.6117683505317
 20
744.9974023620907
 40
4.880471876513573
 50
270.0
 51
328.2412551337831
 73
     1
 72
     2
 10
606.6117683505317
 20
741.9022530134376
 40
1.000000000000049
 50
211.7587448662214
 51
328.2412551337821
 73
     0
 72
     2
 10
611.6117683505317
 20
744.9974023620907
 40
4.880471876513571
 50
211.7587448662176
 51
270.0
 73
     1
 72
     2
 10
611.6117683505317
 20
744.9974023620907
 40
4.880471876513573
 50
270.0
 51
328.2412551337831
 73
     1
 72
     2
 10
616.6117683505317
 20
741.9022530134376
 40
1.000000000000051
 50
211.7587448662214
 51
328.2412551337821
 73
     0
 72
     2
 10
621.6117683505317
 20
744.9974023620907
 40
4.880471876513568
 50
211.7587448662176
 51
270.0
 73
     1
 72
     2
 10
621.6117683505317
 20
744.9974023620907
 40
4.880471876513573
 50
270.0
 51
328.2412551337831
 73
     1
 72
     2
 10
626.6117683505317
 20
741.9022530134376
 40
1.000000000000049
 50
211.7587448662214
 51
328.2412551337821
 73
     0
 72
     2
 10
631.6117683505317
 20
744.9974023620907
 40
4.880471876513571
 50
211.7587448662176
 51
270.0
 73
     1
 72
     2
 10
631.6117683505317
 20
744.9974023620907
 40
4.880471876513573
 50
270.0
 51
328.2412551337831
 73
     1
 72
     2
 10
636.6117683505317
 20
741.9022530134377
 40
0.9999999999999673
 50
211.7587448662159
 51
244.1694581939389
 73
     0
 72
     1
 10
636.1760573935266
 20
742.8023396547928
 11
636.1760573935266
 21
745.9169304855769
 72
     1
 10
636.1760573935266
 20
745.9169304855769
 11
522.1410513480126
 21
745.9169304855769
 97
       40
330
4354
330
41DE
330
41D9
330
439E
330
437E
330
437C
330
436B
330
4384
330
4385
330
4381
330
4382
330
4383
330
4380
330
4387
330
4386
330
4388
330
437F
330
438D
330
438E
330
438B
330
438A
330
438C
330
4389
330
4391
330
4392
330
438F
330
4390
330
4355
330
4399
330
4398
330
4397
330
4395
330
4396
330
4394
330
439C
330
439B
330
439A
330
4393
330
439D
330
4352
 92
        5
 93
       39
 72
     1
 10
636.1760573935265
 20
855.9169304855769
 11
636.1760573935266
 21
859.0315213163613
 72
     2
 10
636.6117683505317
 20
859.9316079577162
 40
0.9999999999999673
 50
115.8305418060611
 51
148.2412551337841
 73
     0
 72
     2
 10
631.6117683505317
 20
856.8364586090634
 40
4.880471876513573
 50
31.75874486621694
 51
90.0
 73
     1
 72
     2
 10
631.6117683505317
 20
856.8364586090634
 40
4.880471876513573
 50
90.0
 51
148.2412551337831
 73
     1
 72
     2
 10
626.6117683505317
 20
859.9316079577162
 40
1.000000000000049
 50
31.7587448662214
 51
148.241255133782
 73
     0
 72
     2
 10
621.6117683505317
 20
856.8364586090634
 40
4.880471876513568
 50
31.75874486621763
 51
90.0
 73
     1
 72
     2
 10
621.6117683505317
 20
856.8364586090634
 40
4.88047187651357
 50
90.0
 51
148.2412551337831
 73
     1
 72
     2
 10
616.6117683505317
 20
859.9316079577162
 40
1.000000000000049
 50
31.7587448662214
 51
148.241255133782
 73
     0
 72
     2
 10
611.6117683505317
 20
856.8364586090634
 40
4.880471876513571
 50
31.75874486621763
 51
90.0
 73
     1
 72
     2
 10
611.6117683505317
 20
856.8364586090634
 40
4.880471876513573
 50
90.0
 51
148.2412551337831
 73
     1
 72
     2
 10
606.6117683505317
 20
859.9316079577162
 40
1.000000000000049
 50
31.7587448662214
 51
148.241255133782
 73
     0
 72
     2
 10
601.6117683505317
 20
856.8364586090634
 40
4.880471876513568
 50
31.75874486621763
 51
90.0
 73
     1
 72
     2
 10
601.6117683505317
 20
856.8364586090634
 40
4.88047187651357
 50
90.0
 51
148.2412551337831
 73
     1
 72
     2
 10
596.6117683505317
 20
859.9316079577162
 40
1.000000000000049
 50
31.7587448662214
 51
148.241255133782
 73
     0
 72
     2
 10
591.6117683505317
 20
856.8364586090634
 40
4.880471876513571
 50
31.75874486621763
 51
90.0
 73
     1
 72
     2
 10
591.6117683505317
 20
856.8364586090634
 40
4.880471876513573
 50
90.0
 51
148.2412551337831
 73
     1
 72
     2
 10
586.6117683505317
 20
859.9316079577162
 40
1.000000000000049
 50
31.7587448662214
 51
148.241255133782
 73
     0
 72
     2
 10
581.6117683505317
 20
856.8364586090634
 40
4.880471876513568
 50
31.75874486621763
 51
90.0
 73
     1
 72
     2
 10
581.6117683505317
 20
856.8364586090634
 40
4.88047187651357
 50
90.0
 51
148.2412551337831
 73
     1
 72
     2
 10
576.6117683505317
 20
859.9316079577162
 40
1.000000000000049
 50
31.7587448662214
 51
148.241255133782
 73
     0
 72
     2
 10
571.6117683505317
 20
856.8364586090634
 40
4.880471876513571
 50
31.75874486621763
 51
90.0
 73
     1
 72
     2
 10
571.6117683505317
 20
856.8364586090634
 40
4.880471876513573
 50
90.0
 51
148.2412551337831
 73
     1
 72
     2
 10
566.6117683505317
 20
859.9316079577162
 40
1.000000000000049
 50
31.7587448662214
 51
148.241255133782
 73
     0
 72
     2
 10
561.6117683505317
 20
856.8364586090634
 40
4.880471876513568
 50
31.75874486621763
 51
90.0
 73
     1
 72
     2
 10
561.6117683505317
 20
856.8364586090634
 40
4.88047187651357
 50
90.0
 51
148.2412551337831
 73
     1
 72
     2
 10
556.6117683505317
 20
859.9316079577162
 40
1.000000000000049
 50
31.7587448662214
 51
148.241255133782
 73
     0
 72
     2
 10
551.6117683505317
 20
856.8364586090634
 40
4.880471876513571
 50
31.75874486621763
 51
90.0
 73
     1
 72
     2
 10
551.6117683505317
 20
856.8364586090634
 40
4.880471876513573
 50
90.0
 51
148.2412551337831
 73
     1
 72
     2
 10
546.6117683505317
 20
859.9316079577162
 40
1.000000000000049
 50
31.7587448662214
 51
148.241255133782
 73
     0
 72
     2
 10
541.6117683505317
 20
856.8364586090634
 40
4.880471876513568
 50
31.75874486621763
 51
90.0
 73
     1
 72
     2
 10
541.6117683505317
 20
856.8364586090634
 40
4.88047187651357
 50
90.0
 51
148.2412551337831
 73
     1
 72
     2
 10
536.6117683505317
 20
859.9316079577162
 40
1.000000000000049
 50
31.7587448662214
 51
148.241255133782
 73
     0
 72
     2
 10
531.6117683505317
 20
856.8364586090634
 40
4.880471876513571
 50
31.75874486621763
 51
90.0
 73
     1
 72
     2
 10
531.6117683505317
 20
856.8364586090634
 40
4.880471876513573
 50
90.0
 51
148.2412551337831
 73
     1
 72
     2
 10
526.6117683505317
 20
859.9316079577162
 40
1.000000000000049
 50
31.7587448662214
 51
148.241255133782
 73
     0
 72
     2
 10
521.6117683505317
 20
856.8364586090634
 40
4.880471876513568
 50
31.75874486621763
 51
90.0
 73
     1
 72
     2
 10
521.6117683505316
 20
856.8364586090634
 40
4.880471876513511
 50
89.99999999999866
 51
114.0222067351539
 73
     1
 72
     4
 94
        3
 73
     0
 74
     0
 95
        8
 96
        4
 40
0.0
 40
0.0
 40
0.0
 40
0.0
 40
5.538351820557119
 40
5.538351820557119
 40
5.538351820557119
 40
5.538351820557119
 10
519.6249737109324
 20
861.2942218146967
 10
520.4759611829984
 20
859.5013917723766
 10
521.3269486550641
 20
857.7085617300566
 10
522.1545355006773
 20
855.9169304855773
 72
     1
 10
522.1545355006773
 20
855.9169304855769
 11
636.1760573935265
 21
855.9169304855769
 97
       39
330
434C
330
434B
330
434E
330
434D
330
4347
330
434A
330
4348
330
4349
330
4345
330
4344
330
433A
330
4343
330
4341
330
4342
330
433B
330
433E
330
433D
330
433C
330
4340
330
433F
330
4334
330
4337
330
4336
330
4335
330
4339
330
4338
330
4330
330
432E
330
4331
330
431B
330
432A
330
432B
330
4329
330
432C
330
4323
330
4326
330
41D9
330
426D
330
4352
 75
     0
 76
     1
 52
0.0
 41
1.0
 77
     0
 78
     1
 53
45.0
 43
0.0
 44
0.0
 45
-2.245064030267287
 46
2.245064030267287
 79
     0
 47
0.2648892482381084
 98
        2
 10
573.1426684023262
 20
744.8060893891119
 10
553.2681334762519
 20
857.3840207925812
  0
LINE
  5
4868
330
18
100
AcDbEntity
  8
SCHRAFFUR
100
AcDbLine
 10
476.1214283810422
 20
855.9169304855769
 30
0.0
 11
476.1214283810422
 21
745.916930485577
 31
0.0
  0
LINE
  5
4A48
102
{ACAD_REACTORS
330
4A4B
102
}
330
18
100
AcDbEntity
  8
0
100
AcDbLine
 10
388.2413513184409
 20
725.2288941735026
 30
0.0000000000002885
 11
388.2413513184409
 21
737.4875244379657
 31
0.0000000000002418
  0
HATCH
  5
4A4B
330
18
100
AcDbEntity
  8
2_SCHRAFF
100
AcDbHatch
 10
0.0
 20
0.0
 30
0.0000000000002885
210
0.0
220
0.0
230
1.0
  2
ANSI37
 70
     0
 71
     1
 91
        1
 92
        7
 72
     1
 73
     1
 93
       15
 10
387.2343513184408
 20
724.2218941735026
 42
0.4142135623731117
 10
388.2413513184409
 20
725.2288941735026
 42
0.0
 10
388.2413513184409
 20
727.7463941735028
 42
0.0
 10
373.1363513184409
 20
727.7463941735028
 42
0.0
 10
373.1363513184409
 20
734.2918941735026
 42
0.0
 10
388.2413513184409
 20
734.2918941735026
 42
0.0
 10
388.2413513184409
 20
735.2988941735024
 42
0.0
 10
339.9053513184406
 20
735.2988941735026
 42
1.0
 10
339.9053513184409
 20
733.2848941735028
 42
0.4142135623731282
 10
340.4088513184408
 20
732.7813941735026
 42
0.0
 10
343.9333513184409
 20
732.7813941735026
 42
0.0
 10
343.9333513184408
 20
732.3785941735025
 42
0.0
 10
368.1063989692742
 20
732.3785941735025
 42
-0.9511298722632247
 10
370.1153513184407
 20
732.2778941735028
 42
0.0
 10
370.1153513184407
 20
724.2218941735026
 42
0.0
 97
       14
330
4A53
330
4A58
330
4A54
330
4A48
330
4A4C
330
4A50
330
4A51
330
4A4F
330
4A52
330
4A4D
330
4A59
330
4A5A
330
4A55
330
4A5D
 75
     0
 76
     1
 52
90.0
 41
0.5
 77
     0
 78
     2
 53
135.0
 43
129.2376096351761
 44
-0.2999999999999545
 45
-1.122532015133643
 46
-1.122532015133643
 79
     0
 53
225.0
 43
129.2376096351761
 44
-0.2999999999999545
 45
1.122532015133643
 46
-1.122532015133643
 79
     0
 47
0.2397348078550576
 98
        1
 10
378.8733386025813
 20
725.3190612008157
  0
LINE
  5
4A4C
102
{ACAD_REACTORS
330
4A4B
102
}
330
18
100
AcDbEntity
  8
OBJEKT
100
AcDbLine
 10
339.9053513184406
 20
735.2988941735026
 30
0.0000000000002885
 11
388.2413513184409
 21
735.2988941735026
 31
0.0000000000002885
  0
LINE
  5
4A4D
102
{ACAD_REACTORS
330
4A4B
102
}
330
18
100
AcDbEntity
  8
6_DÜNNEKÖRPERK
100
AcDbLine
 10
368.1063983184407
 20
732.3785941735025
 30
0.0000000000002885
 11
343.9333513184409
 21
732.3785941735025
 31
0.0000000000002885
  0
LINE
  5
4A4E
330
18
100
AcDbEntity
  8
0
100
AcDbLine
 10
368.1013513184406
 20
731.2708941735024
 30
0.0000000000002885
 11
343.9333513184409
 21
731.2708941735024
 31
0.0000000000002885
  0
LINE
  5
4A4F
102
{ACAD_REACTORS
330
4A4B
102
}
330
18
100
AcDbEntity
  8
0
100
AcDbLine
 10
343.9333513184409
 20
732.7813941735026
 30
0.0000000000002885
 11
340.4088513184408
 21
732.7813941735026
 31
0.0000000000002885
  0
ARC
  5
4A50
102
{ACAD_REACTORS
330
4A4B
102
}
330
18
100
AcDbEntity
  8
0
100
AcDbCircle
 10
339.9053513184406
 20
734.2918941735026
 30
0.0000000000002885
 40
1.007
100
AcDbArc
 50
90.0
 51
270.0
  0
ARC
  5
4A51
102
{ACAD_REACTORS
330
4A4B
102
}
330
18
100
AcDbEntity
  8
0
100
AcDbCircle
 10
340.4088513184408
 20
733.2848941735028
 30
0.0000000000002885
 40
0.5035
100
AcDbArc
 50
180.0
 51
270.0
  0
LINE
  5
4A52
102
{ACAD_REACTORS
330
4A4B
102
}
330
18
100
AcDbEntity
  8
0
100
AcDbLine
 10
343.9333513184409
 20
731.2708941735024
 30
0.0000000000002885
 11
343.9333513184409
 21
732.7813941735026
 31
0.0000000000002885
  0
LINE
  5
4A53
102
{ACAD_REACTORS
330
4A4B
102
}
330
18
100
AcDbEntity
  8
0
100
AcDbLine
 10
373.1363513184409
 20
727.7463941735025
 30
0.0000000000002885
 11
388.2413513184409
 21
727.7463941735025
 31
0.0000000000002885
  0
LINE
  5
4A54
102
{ACAD_REACTORS
330
4A4B
102
}
330
18
100
AcDbEntity
  8
0
100
AcDbLine
 10
388.2413513184409
 20
734.2918941735026
 30
0.0000000000002885
 11
373.1363513184409
 21
734.2918941735026
 31
0.0000000000002885
  0
LINE
  5
4A55
102
{ACAD_REACTORS
330
4A4B
102
}
330
18
100
AcDbEntity
  8
0
100
AcDbLine
 10
370.1153513184407
 20
724.2218941735026
 30
0.0000000000002885
 11
387.2343513184408
 21
724.2218941735026
 31
0.0000000000002885
  0
LINE
  5
4A56
330
18
100
AcDbEntity
  8
0
100
AcDbLine
 10
373.1363513184409
 20
734.2918941735026
 30
0.0000000000002885
 11
388.2413513184409
 21
734.2918941735026
 31
0.0000000000002885
  0
LINE
  5
4A57
330
18
100
AcDbEntity
  8
1_SYMMETRIE
100
AcDbLine
 10
373.1363513184409
 20
731.0191441735026
 30
0.0000000000002885
 11
388.2413513184409
 21
731.0191441735026
 31
0.0000000000002885
  0
LINE
  5
4A58
102
{ACAD_REACTORS
330
4A4B
102
}
330
18
100
AcDbEntity
  8
0
100
AcDbLine
 10
373.1363513184409
 20
727.7463941735025
 30
0.0000000000002885
 11
373.1363513184409
 21
734.2918941735026
 31
0.0000000000002885
  0
ARC
  5
4A59
102
{ACAD_REACTORS
330
4A4B
102
}
330
18
100
AcDbEntity
  8
0
100
AcDbCircle
 10
369.1083513184406
 20
732.2778941735026
 30
0.0000000000002885
 40
1.007
100
AcDbArc
 50
0.0
 51
180.0
  0
LINE
  5
4A5A
102
{ACAD_REACTORS
330
4A4B
102
}
330
18
100
AcDbEntity
  8
0
100
AcDbLine
 10
370.1153513184407
 20
724.2218941735026
 30
0.0000000000002885
 11
370.1153513184407
 21
732.2778941735026
 31
0.0000000000002885
  0
LINE
  5
4A5B
330
18
100
AcDbEntity
  8
0
100
AcDbLine
 10
368.1013513184406
 20
732.2778941735026
 30
0.0000000000002885
 11
368.1013513184406
 21
731.2708941735024
 31
0.0000000000002885
  0
LINE
  5
4A5C
330
18
100
AcDbEntity
  8
0
100
AcDbLine
 10
370.1153513184407
 20
732.2778941735026
 30
0.0000000000002885
 11
370.1153513184407
 21
731.2708941735024
 31
0.0000000000002885
  0
ARC
  5
4A5D
102
{ACAD_REACTORS
330
4A4B
102
}
330
18
100
AcDbEntity
  8
0
100
AcDbCircle
 10
387.2343513184408
 20
725.2288941735026
 30
0.0000000000002885
 40
1.007
100
AcDbArc
 50
270.0
 51
0.0
  0
LINE
  5
4A60
102
{ACAD_REACTORS
330
4A62
102
}
330
18
100
AcDbEntity
  8
0
100
AcDbLine
 10
388.2413513184409
 20
876.6041489693979
 30
0.0000000000002885
 11
388.2413513184409
 21
864.3455187049349
 31
0.0000000000002418
  0
LINE
  5
4A61
330
18
100
AcDbEntity
  8
1_SYMMETRIE
100
AcDbLine
 10
390.9562714845514
 20
800.9165215714501
 30
-0.0000000000000002
 11
336.7944132357387
 21
800.9165215714501
 31
-0.0000000000000002
  0
HATCH
  5
4A62
330
18
100
AcDbEntity
  8
2_SCHRAFF
100
AcDbHatch
 10
0.0
 20
0.0
 30
0.0000000000002885
210
0.0
220
0.0
230
1.0
  2
ANSI37
 70
     0
 71
     1
 91
        1
 92
        7
 72
     1
 73
     1
 93
       15
 10
370.1153513184407
 20
877.6111489693981
 42
0.0
 10
370.1153513184407
 20
869.5551489693979
 42
-0.9511298722623108
 10
368.1063989692743
 20
869.454448969398
 42
0.0
 10
343.9333513184409
 20
869.454448969398
 42
0.0
 10
343.9333513184409
 20
869.0516489693978
 42
0.0
 10
340.4088513184408
 20
869.0516489693978
 42
0.4142135623731282
 10
339.9053513184409
 20
868.5481489693977
 42
1.0
 10
339.9053513184408
 20
866.5341489693979
 42
0.0
 10
388.2413513184409
 20
866.5341489693979
 42
0.0
 10
388.2413513184409
 20
867.5411489693976
 42
0.0
 10
373.1363513184409
 20
867.541148969398
 42
0.0
 10
373.1363513184409
 20
874.0866489693981
 42
0.0
 10
388.2413513184409
 20
874.0866489693978
 42
0.0
 10
388.2413513184409
 20
876.6041489693979
 42
0.4142135623731282
 10
387.2343513184409
 20
877.6111489693978
 42
0.0
 97
       14
330
4A6E
330
4A73
330
4A6D
330
4A60
330
4A63
330
4A68
330
4A67
330
4A66
330
4A69
330
4A65
330
4A72
330
4A71
330
4A6C
330
4A74
 75
     0
 76
     1
 52
90.0
 41
0.5
 77
     0
 78
     2
 53
225.0
 43
129.2376096351761
 44
1602.133043142901
 45
-1.122532015133643
 46
1.122532015133643
 79
     0
 53
135.0
 43
129.2376096351761
 44
1602.133043142901
 45
1.122532015133643
 46
1.122532015133643
 79
     0
 47
0.2397348078550576
 98
        1
 10
378.8733386025813
 20
876.5139819420848
  0
LINE
  5
4A63
102
{ACAD_REACTORS
330
4A62
102
}
330
18
100
AcDbEntity
  8
OBJEKT
100
AcDbLine
 10
339.9053513184406
 20
866.5341489693979
 30
0.0000000000002885
 11
388.2413513184409
 21
866.5341489693979
 31
0.0000000000002885
  0
LINE
  5
4A64
330
18
100
AcDbEntity
  8
0
100
AcDbLine
 10
368.1013513184406
 20
870.562148969398
 30
0.0000000000002885
 11
343.9333513184409
 21
870.562148969398
 31
0.0000000000002885
  0
LINE
  5
4A65
102
{ACAD_REACTORS
330
4A62
102
}
330
18
100
AcDbEntity
  8
6_DÜNNEKÖRPERK
100
AcDbLine
 10
368.1063983184407
 20
869.454448969398
 30
0.0000000000002885
 11
343.9333513184409
 21
869.454448969398
 31
0.0000000000002885
  0
LINE
  5
4A66
102
{ACAD_REACTORS
330
4A62
102
}
330
18
100
AcDbEntity
  8
0
100
AcDbLine
 10
343.9333513184409
 20
869.0516489693978
 30
0.0000000000002885
 11
340.4088513184408
 21
869.0516489693978
 31
0.0000000000002885
  0
ARC
  5
4A67
102
{ACAD_REACTORS
330
4A62
102
}
330
18
100
AcDbEntity
  8
0
100
AcDbCircle
 10
340.4088513184408
 20
868.5481489693977
 30
0.0000000000002885
 40
0.5035
100
AcDbArc
 50
90.0
 51
180.0
  0
ARC
  5
4A68
102
{ACAD_REACTORS
330
4A62
102
}
330
18
100
AcDbEntity
  8
0
100
AcDbCircle
 10
339.9053513184406
 20
867.541148969398
 30
0.0000000000002885
 40
1.007
100
AcDbArc
 50
90.0
 51
270.0
  0
LINE
  5
4A69
102
{ACAD_REACTORS
330
4A62
102
}
330
18
100
AcDbEntity
  8
0
100
AcDbLine
 10
343.9333513184409
 20
870.562148969398
 30
0.0000000000002885
 11
343.9333513184409
 21
869.0516489693978
 31
0.0000000000002885
  0
LINE
  5
4A6A
330
18
100
AcDbEntity
  8
1_SYMMETRIE
100
AcDbLine
 10
373.1363513184409
 20
870.8138989693978
 30
0.0000000000002885
 11
388.2413513184409
 21
870.8138989693978
 31
0.0000000000002885
  0
LINE
  5
4A6B
330
18
100
AcDbEntity
  8
0
100
AcDbLine
 10
373.1363513184409
 20
867.541148969398
 30
0.0000000000002885
 11
388.2413513184409
 21
867.541148969398
 31
0.0000000000002885
  0
LINE
  5
4A6C
102
{ACAD_REACTORS
330
4A62
102
}
330
18
100
AcDbEntity
  8
0
100
AcDbLine
 10
370.1153513184407
 20
877.6111489693978
 30
0.0000000000002885
 11
387.2343513184408
 21
877.6111489693978
 31
0.0000000000002885
  0
LINE
  5
4A6D
102
{ACAD_REACTORS
330
4A62
102
}
330
18
100
AcDbEntity
  8
0
100
AcDbLine
 10
388.2413513184409
 20
867.541148969398
 30
0.0000000000002885
 11
373.1363513184409
 21
867.541148969398
 31
0.0000000000002885
  0
LINE
  5
4A6E
102
{ACAD_REACTORS
330
4A62
102
}
330
18
100
AcDbEntity
  8
0
100
AcDbLine
 10
373.1363513184409
 20
874.0866489693981
 30
0.0000000000002885
 11
388.2413513184409
 21
874.0866489693981
 31
0.0000000000002885
  0
LINE
  5
4A6F
330
18
100
AcDbEntity
  8
0
100
AcDbLine
 10
370.1153513184407
 20
869.5551489693979
 30
0.0000000000002885
 11
370.1153513184407
 21
870.562148969398
 31
0.0000000000002885
  0
LINE
  5
4A70
330
18
100
AcDbEntity
  8
0
100
AcDbLine
 10
368.1013513184406
 20
869.5551489693979
 30
0.0000000000002885
 11
368.1013513184406
 21
870.562148969398
 31
0.0000000000002885
  0
LINE
  5
4A71
102
{ACAD_REACTORS
330
4A62
102
}
330
18
100
AcDbEntity
  8
0
100
AcDbLine
 10
370.1153513184407
 20
877.6111489693978
 30
0.0000000000002885
 11
370.1153513184407
 21
869.5551489693979
 31
0.0000000000002885
  0
ARC
  5
4A72
102
{ACAD_REACTORS
330
4A62
102
}
330
18
100
AcDbEntity
  8
0
100
AcDbCircle
 10
369.1083513184406
 20
869.5551489693979
 30
0.0000000000002885
 40
1.007
100
AcDbArc
 50
180.0
 51
0.0
  0
LINE
  5
4A73
102
{ACAD_REACTORS
330
4A62
102
}
330
18
100
AcDbEntity
  8
0
100
AcDbLine
 10
373.1363513184409
 20
874.0866489693981
 30
0.0000000000002885
 11
373.1363513184409
 21
867.541148969398
 31
0.0000000000002885
  0
ARC
  5
4A74
102
{ACAD_REACTORS
330
4A62
102
}
330
18
100
AcDbEntity
  8
0
100
AcDbCircle
 10
387.2343513184408
 20
876.6041489693979
 30
0.0000000000002885
 40
1.007
100
AcDbArc
 50
0.0
 51
90.0
  0
INSERT
  5
4BAE
102
{ACAD_REACTORS
330
4BD7
330
4C5A
102
}
330
18
100
AcDbEntity
  8
OBJEKT
100
AcDbBlockReference
  2
Systemdeckel1
 10
335.3983513184406
 20
800.9165215714501
 30
-0.0000000000002902
  0
ARC
  5
4BAF
102
{ACAD_REACTORS
330
4BD7
102
}
330
18
100
AcDbEntity
  8
OBJEKT
100
AcDbCircle
 10
475.7536172426394
 20
856.3779569777075
 30
0.0
 40
0.5897715320184637
100
AcDbArc
 50
231.4805583357233
 51
308.5831847189617
  0
HATCH
  5
4BD7
330
18
100
AcDbEntity
  8
OBJEKT
100
AcDbHatch
 10
0.0
 20
0.0
 30
0.0
210
0.0
220
0.0
230
1.0
  2
SOLID
 70
     1
 71
     1
 91
        1
 92
        7
 72
     1
 73
     1
 93
        3
 10
475.3863192357953
 20
857.2877814629052
 42
0.0
 10
475.3863192357953
 20
855.9165215714502
 42
0.3497181130436927
 10
476.1214283810422
 20
855.9169304855769
 42
0.119687297527168
 97
        3
330
4BAE
330
4BAF
330
45F7
 75
     0
 76
     1
 47
0.0310877861179336
 98
        1
 10
475.7201472815673
 20
856.1232792537499
450
        0
451
        0
460
0.0
461
0.0
452
        0
462
0.0
453
        0
470

  0
HATCH
  5
4BD8
330
18
100
AcDbEntity
  8
OBJEKT
100
AcDbHatch
 10
0.0
 20
0.0
 30
0.0
210
0.0
220
0.0
230
1.0
  2
SOLID
 70
     1
 71
     0
 91
        1
 92
        7
 72
     1
 73
     1
 93
        3
 10
475.3863192357953
 20
744.5460795082489
 42
0.0
 10
475.3863192357953
 20
745.9173393997036
 42
-0.3497181130436927
 10
476.1214283810422
 20
745.916930485577
 42
-0.119687297527168
 97
        0
 75
     0
 76
     1
 47
0.0310877861179336
 98
        1
 10
475.7201472815673
 20
745.7105817174041
450
        0
451
        0
460
0.0
461
0.0
452
        0
462
0.0
453
        0
470

  0
ARC
  5
4BD9
330
18
100
AcDbEntity
  8
OBJEKT
100
AcDbCircle
 10
475.7536172426394
 20
745.4559039934467
 30
0.0
 40
0.5897715320184637
100
AcDbArc
 50
51.41681528103841
 51
128.5194416642766
  0
ARC
  5
4BDA
102
{ACAD_REACTORS
330
4C5A
102
}
330
18
100
AcDbEntity
  8
OBJEKT
100
AcDbCircle
 10
472.9314910293691
 20
746.7449878091078
 30
0.0
 40
3.295660668007605
100
AcDbArc
 50
318.1476590932308
 51
345.4481013472425
  0
HATCH
  5
4C5A
330
18
100
AcDbEntity
  8
SCHRAFFUR
100
AcDbHatch
 10
0.0
 20
0.0
 30
0.0
210
0.0
220
0.0
230
1.0
  2
ANSI31
 70
     0
 71
     1
 91
        2
 92
        5
 93
       43
 72
     2
 10
471.5830744139309
 20
741.6248058782699
 40
4.880471876513521
 50
270.0000000000007
 51
328.2412551337842
 73
     1
 72
     2
 10
476.5830744139312
 20
738.5296565296169
 40
0.9999999999999843
 50
211.7587448662124
 51
328.2412551338384
 73
     0
 72
     2
 10
480.2741771233471
 20
741.7882994765957
 40
3.941545234613071
 50
223.8843585763352
 51
289.3949014377112
 73
     1
 72
     2
 10
479.2701619715759
 20
744.4700765998065
 40
6.804782393109602
 50
289.8704853679181
 51
342.5419982325616
 73
     1
 72
     2
 10
486.6117683505317
 20
741.9022530134377
 40
0.999999999999984
 50
211.7587448662052
 51
328.2412551337858
 73
     0
 72
     2
 10
491.6117683505317
 20
744.9974023620906
 40
4.880471876513521
 50
211.7587448662161
 51
270.0
 73
     1
 72
     2
 10
491.6117683505317
 20
744.9974023620906
 40
4.880471876513521
 50
270.0
 51
328.2412551337838
 73
     1
 72
     2
 10
496.6117683505316
 20
741.9022530134377
 40
0.9999999999999843
 50
211.7587448662141
 51
328.2412551337858
 73
     0
 72
     2
 10
501.6117683505316
 20
744.9974023620906
 40
4.880471876513518
 50
211.7587448662161
 51
270.0
 73
     1
 72
     2
 10
501.6117683505316
 20
744.9974023620906
 40
4.880471876513521
 50
270.0
 51
328.2412551337838
 73
     1
 72
     2
 10
506.6117683505317
 20
741.9022530134377
 40
0.999999999999984
 50
211.7587448662141
 51
328.2412551337858
 73
     0
 72
     2
 10
511.6117683505317
 20
744.9974023620906
 40
4.880471876513521
 50
211.7587448662161
 51
270.0
 73
     1
 72
     2
 10
511.6117683505316
 20
744.9974023620906
 40
4.8804718765135
 50
270.0000000000013
 51
307.1759931037882
 73
     1
 72
     4
 94
        3
 73
     0
 74
     0
 95
        8
 96
        4
 40
121.6424890150237
 40
121.6424890150237
 40
121.6424890150237
 40
121.6424890150237
 40
126.5931227726089
 40
126.5931227726089
 40
126.5931227726089
 40
126.5931227726089
 10
514.5608682324755
 20
741.1087244860307
 10
513.803009888563
 20
742.7118134172807
 10
513.0463648358238
 20
744.3148395864723
 10
512.3078000527857
 20
745.9169304855769
 72
     1
 10
512.3078000527859
 20
745.9169304855769
 11
476.1214283810422
 21
745.9169304855769
 72
     2
 10
472.9314910293688
 20
746.7449878091078
 40
3.295660668007683
 50
14.55189865275703
 51
41.85234090676574
 73
     0
 72
     1
 10
475.3863192357953
 20
744.546079508249
 11
475.3863192357953
 21
744.5452616799955
 72
     1
 10
475.3863192357953
 20
744.5452616799955
 11
472.386319236528
 21
742.5451953848417
 72
     1
 10
472.386319236528
 20
742.5451953848417
 11
396.3983513184405
 21
742.5435161735026
 72
     1
 10
396.3983513184405
 20
742.5435161735026
 11
396.3983513184405
 21
739.5124471370163
 72
     2
 10
396.5830744139311
 20
738.5296565296169
 40
0.9999999999999964
 50
259.3550113056767
 51
328.2412551337858
 73
     0
 72
     2
 10
401.5830744139312
 20
741.6248058782699
 40
4.880471876513518
 50
211.7587448662158
 51
269.9999999999993
 73
     1
 72
     2
 10
401.5830744139309
 20
741.6248058782699
 40
4.880471876513521
 50
270.0000000000007
 51
328.2412551337842
 73
     1
 72
     2
 10
406.5830744139311
 20
738.5296565296169
 40
0.999999999999984
 50
211.7587448662141
 51
328.2412551337858
 73
     0
 72
     2
 10
411.583074413931
 20
741.6248058782699
 40
4.880471876513521
 50
211.7587448662158
 51
269.9999999999993
 73
     1
 72
     2
 10
411.5830744139309
 20
741.6248058782699
 40
4.880471876513521
 50
270.0000000000007
 51
328.2412551337842
 73
     1
 72
     2
 10
416.5830744139311
 20
738.5296565296169
 40
0.9999999999999843
 50
211.7587448662141
 51
328.2412551337858
 73
     0
 72
     2
 10
421.5830744139311
 20
741.6248058782699
 40
4.880471876513518
 50
211.7587448662158
 51
269.9999999999993
 73
     1
 72
     2
 10
421.5830744139309
 20
741.6248058782699
 40
4.880471876513521
 50
270.0000000000007
 51
328.2412551337842
 73
     1
 72
     2
 10
426.5830744139311
 20
738.5296565296169
 40
0.999999999999984
 50
211.7587448662141
 51
328.2412551337858
 73
     0
 72
     2
 10
431.5830744139312
 20
741.6248058782699
 40
4.880471876513521
 50
211.7587448662158
 51
269.9999999999993
 73
     1
 72
     2
 10
431.5830744139311
 20
741.6248058782699
 40
4.880471876513521
 50
270.0000000000007
 51
328.2412551337842
 73
     1
 72
     2
 10
436.5830744139309
 20
738.5296565296169
 40
0.9999999999999843
 50
211.7587448662141
 51
328.2412551337858
 73
     0
 72
     2
 10
441.5830744139311
 20
741.6248058782699
 40
4.880471876513518
 50
211.7587448662158
 51
269.9999999999993
 73
     1
 72
     2
 10
441.5830744139309
 20
741.6248058782699
 40
4.880471876513521
 50
270.0000000000007
 51
328.2412551337842
 73
     1
 72
     2
 10
446.5830744139311
 20
738.5296565296169
 40
0.999999999999984
 50
211.7587448662141
 51
328.2412551337858
 73
     0
 72
     2
 10
451.5830744139312
 20
741.6248058782699
 40
4.880471876513521
 50
211.7587448662158
 51
269.9999999999993
 73
     1
 72
     2
 10
451.5830744139309
 20
741.6248058782699
 40
4.880471876513521
 50
270.0000000000007
 51
328.2412551337842
 73
     1
 72
     2
 10
456.5830744139311
 20
738.5296565296169
 40
0.9999999999999843
 50
211.7587448662141
 51
328.2412551337858
 73
     0
 72
     2
 10
461.583074413931
 20
741.6248058782699
 40
4.880471876513518
 50
211.7587448662158
 51
269.9999999999993
 73
     1
 72
     2
 10
461.5830744139309
 20
741.6248058782699
 40
4.880471876513521
 50
270.0000000000007
 51
328.2412551337842
 73
     1
 72
     2
 10
466.5830744139311
 20
738.5296565296169
 40
0.999999999999984
 50
211.7587448662141
 51
328.2412551337858
 73
     0
 72
     2
 10
471.5830744139311
 20
741.6248058782699
 40
4.880471876513521
 50
211.7587448662158
 51
269.9999999999993
 73
     1
 97
       41
330
4610
330
4375
330
436C
330
437A
330
437B
330
4377
330
4378
330
4379
330
4376
330
41D8
330
4617
330
4BDA
330
4BAE
330
45FC
330
45FE
330
45FF
330
45FD
330
4600
330
4601
330
4604
330
4602
330
4603
330
45FB
330
4606
330
4609
330
4607
330
4608
330
4605
330
460B
330
460A
330
460D
330
460C
330
45FA
330
45F9
330
4612
330
4614
330
4613
330
4611
330
4616
330
4615
330
460E
 92
        5
 93
       42
 72
     1
 10
472.3863192365277
 20
859.2878477580589
 11
475.3863192357955
 21
857.287781462905
 72
     2
 10
472.9314910293691
 20
855.0888731620462
 40
3.295660668007624
 50
318.147659093233
 51
345.4481013472425
 73
     0
 72
     1
 10
476.1214283810422
 20
855.9169304855769
 11
517.1410513480127
 21
855.9169304855769
 72
     4
 94
        3
 73
     0
 74
     0
 95
        8
 96
        4
 40
0.871414117582147
 40
0.871414117582147
 40
0.871414117582147
 40
0.871414117582147
 40
5.306747345501367
 40
5.306747345501367
 40
5.306747345501367
 40
5.306747345501367
 10
517.1410513480099
 20
855.9169304855824
 10
516.4793621414188
 20
857.3522632827337
 10
515.8031606492881
 20
858.7883467825449
 10
515.1245761135201
 20
860.2245535542691
 72
     2
 10
511.6117683505316
 20
856.8364586090634
 40
4.880471876513524
 50
43.96466583194489
 51
89.99999999999866
 73
     1
 72
     2
 10
511.6117683505317
 20
856.8364586090634
 40
4.880471876513521
 50
90.0
 51
148.2412551337838
 73
     1
 72
     2
 10
506.6117683505317
 20
859.9316079577162
 40
0.999999999999984
 50
31.75874486621412
 51
148.2412551337858
 73
     0
 72
     2
 10
501.6117683505316
 20
856.8364586090634
 40
4.880471876513518
 50
31.75874486621613
 51
90.0
 73
     1
 72
     2
 10
501.6117683505316
 20
856.8364586090634
 40
4.880471876513518
 50
90.0
 51
148.2412551337838
 73
     1
 72
     2
 10
496.6117683505316
 20
859.9316079577162
 40
0.999999999999984
 50
31.75874486621412
 51
148.2412551337858
 73
     0
 72
     2
 10
491.6117683505317
 20
856.8364586090634
 40
4.880471876513521
 50
31.75874486621613
 51
90.0
 73
     1
 72
     2
 10
491.6117683505317
 20
856.8364586090634
 40
4.880471876513521
 50
90.0
 51
148.2412551337838
 73
     1
 72
     2
 10
486.6117683505317
 20
859.9316079577162
 40
0.999999999999984
 50
31.75874486621412
 51
148.2412551337858
 73
     0
 72
     2
 10
479.2701619715761
 20
857.3637843713475
 40
6.804782393109602
 50
17.45800176743844
 51
70.12951463208395
 73
     1
 72
     2
 10
480.2741771233471
 20
860.0455614945584
 40
3.941545234613069
 50
70.60509856229041
 51
136.1156414236648
 73
     1
 72
     2
 10
476.5830744139312
 20
863.3042044415374
 40
0.999999999999984
 50
31.75874486616166
 51
148.2412551337876
 73
     0
 72
     2
 10
471.5830744139309
 20
860.2090550928844
 40
4.880471876513521
 50
31.75874486621578
 51
89.99999999999934
 73
     1
 72
     2
 10
471.5830744139311
 20
860.2090550928844
 40
4.880471876513521
 50
90.00000000000067
 51
148.2412551337842
 73
     1
 72
     2
 10
466.5830744139311
 20
863.3042044415374
 40
0.999999999999984
 50
31.75874486621412
 51
148.2412551337858
 73
     0
 72
     2
 10
461.5830744139309
 20
860.2090550928844
 40
4.880471876513518
 50
31.75874486621578
 51
89.99999999999934
 73
     1
 72
     2
 10
461.583074413931
 20
860.2090550928844
 40
4.880471876513518
 50
90.00000000000067
 51
148.2412551337842
 73
     1
 72
     2
 10
456.5830744139311
 20
863.3042044415374
 40
0.999999999999984
 50
31.75874486621412
 51
148.2412551337858
 73
     0
 72
     2
 10
451.5830744139309
 20
860.2090550928844
 40
4.880471876513521
 50
31.75874486621578
 51
89.99999999999934
 73
     1
 72
     2
 10
451.5830744139312
 20
860.2090550928844
 40
4.880471876513521
 50
90.00000000000067
 51
148.2412551337842
 73
     1
 72
     2
 10
446.5830744139311
 20
863.3042044415374
 40
0.999999999999984
 50
31.75874486621412
 51
148.2412551337858
 73
     0
 72
     2
 10
441.5830744139309
 20
860.2090550928844
 40
4.880471876513518
 50
31.75874486621578
 51
89.99999999999934
 73
     1
 72
     2
 10
441.5830744139311
 20
860.2090550928844
 40
4.880471876513518
 50
90.00000000000067
 51
148.2412551337842
 73
     1
 72
     2
 10
436.5830744139309
 20
863.3042044415374
 40
0.999999999999984
 50
31.75874486621412
 51
148.2412551337858
 73
     0
 72
     2
 10
431.5830744139311
 20
860.2090550928844
 40
4.880471876513521
 50
31.75874486621578
 51
89.99999999999934
 73
     1
 72
     2
 10
431.5830744139312
 20
860.2090550928844
 40
4.880471876513521
 50
90.00000000000067
 51
148.2412551337842
 73
     1
 72
     2
 10
426.5830744139311
 20
863.3042044415374
 40
0.999999999999984
 50
31.75874486621412
 51
148.2412551337858
 73
     0
 72
     2
 10
421.5830744139309
 20
860.2090550928844
 40
4.880471876513518
 50
31.75874486621578
 51
89.99999999999934
 73
     1
 72
     2
 10
421.5830744139311
 20
860.2090550928844
 40
4.880471876513518
 50
90.00000000000067
 51
148.2412551337842
 73
     1
 72
     2
 10
416.5830744139311
 20
863.3042044415374
 40
0.999999999999984
 50
31.75874486621412
 51
148.2412551337858
 73
     0
 72
     2
 10
411.5830744139309
 20
860.2090550928844
 40
4.880471876513521
 50
31.75874486621578
 51
89.99999999999934
 73
     1
 72
     2
 10
411.583074413931
 20
860.2090550928844
 40
4.880471876513521
 50
90.00000000000067
 51
148.2412551337842
 73
     1
 72
     2
 10
406.5830744139311
 20
863.3042044415374
 40
0.999999999999984
 50
31.75874486621412
 51
148.2412551337858
 73
     0
 72
     2
 10
401.5830744139309
 20
860.2090550928844
 40
4.880471876513518
 50
31.75874486621578
 51
89.99999999999934
 73
     1
 72
     2
 10
401.5830744139312
 20
860.2090550928844
 40
4.880471876513518
 50
90.00000000000067
 51
148.2412551337842
 73
     1
 72
     2
 10
396.5830744139311
 20
863.3042044415374
 40
0.9999999999999964
 50
31.75874486621412
 51
100.6449886943232
 73
     0
 72
     1
 10
396.3983513184405
 20
862.3214138341378
 11
396.3983513184405
 21
859.2895269693981
 72
     1
 10
396.3983513184405
 20
859.2895269693981
 11
472.3863192365277
 21
859.2878477580589
 97
       41
330
4318
330
4317
330
4319
330
4316
330
431A
330
430F
330
4313
330
4314
330
4312
330
4315
330
4310
330
4311
330
430C
330
430D
330
430B
330
430E
330
4309
330
430A
330
4303
330
4302
330
4304
330
42FE
330
4272
330
4270
330
4306
330
4305
330
45F5
330
4BAE
330
45F7
330
45F6
330
41D8
330
4327
330
4324
330
4328
330
431C
330
4320
330
4321
330
431F
330
4322
330
431D
330
431E
 75
     0
 76
     1
 52
0.0
 41
1.0
 77
     0
 78
     1
 53
45.0
 43
0.0
 44
0.0
 45
-2.245064030267287
 46
2.245064030267287
 79
     0
 47
0.2950303083638653
 98
        2
 10
469.3081520129394
 20
740.0736037915747
 10
450.7139114865458
 20
860.741000690305
  0
VIEWPORT
  5
24D9
330
23BE
100
AcDbEntity
 67
     1
  8
0
100
AcDbViewport
 10
261.9830548955184
 20
189.2031982767947
 30
0.0
 40
584.1921936070435
 41
398.7186109168618
 68
     1
 69
     1
 12
261.9830548955184
 22
189.2031982767947
 13
0.0
 23
0.0
 14
10.0
 24
10.0
 15
10.0
 25
10.0
 16
0.0
 26
0.0
 36
1.0
 17
0.0
 27
0.0
 37
0.0
 42
50.0
 43
0.0
 44
0.0
 45
398.7186109168618
 50
0.0
 51
0.0
 72
   100
331
2499
 90
    32800
  1

281
     0
 71
     1
 74
     0
110
0.0
120
0.0
130
0.0
111
1.0
121
0.0
131
0.0
112
0.0
122
1.0
132
0.0
 79
     0
146
0.0
170
     0
  0
INSERT
  5
24E3
330
23BE
100
AcDbEntity
 67
     1
  8
TEXTE
100
AcDbBlockReference
  2
A3ra
 10
5.611244138646383
 20
8.626898060227063
 30
0.0
  0
LINE
  5
253D
330
23BE
100
AcDbEntity
 67
     1
  8
OBJEKT
100
AcDbLine
 10
400.6112441386464
 20
6.541390972050407
 30
0.0
 11
213.4112441386464
 21
6.541390972050407
 31
0.0
  0
INSERT
  5
253E
330
23BE
100
AcDbEntity
 67
     1
  8
OBJEKT
100
AcDbBlockReference
 66
     1
  2
schriftfeld-31.01.02
 10
400.6112441386464
 20
6.541390972050407
 30
0.0
  0
ATTRIB
  5
253F
330
253E
100
AcDbEntity
 67
     1
  8
TEXTE
 62
     6
370
    35
100
AcDbText
 10
357.5072183389878
 20
33.95986255447531
 30
0.0
 40
3.5
  1
.
  7
ISOCP
 72
     1
 11
358.0322183389878
 21
33.95986255447531
 31
0.0
100
AcDbAttribute
  2
BENENNUNG
 70
     0
  0
ATTRIB
  5
2540
330
253E
100
AcDbEntity
 67
     1
  8
TEXTE
100
AcDbText
 10
318.7233108647116
 20
23.0667620566918
 30
0.0
 40
3.5
  1
4
  7
ISOCP
100
AcDbAttribute
  2
A?
 70
     0
  0
ATTRIB
  5
2541
330
253E
100
AcDbEntity
 67
     1
  8
TEXTE
 62
     6
370
    35
100
AcDbText
 10
355.9173261761257
 20
23.15451109196192
 30
0.0
 40
3.5
  1
.
  7
ISOCP
 72
     1
 11
356.4423261761256
 21
23.15451109196192
 31
0.0
100
AcDbAttribute
  2
ZNR
 70
     0
  0
ATTRIB
  5
2542
330
253E
100
AcDbEntity
 67
     1
  8
TEXTE
100
AcDbText
 10
314.8990004982833
 20
15.67819926835079
 30
0.0
 40
3.5
  1
                     
 41
2.915382436747043
  7
ISOCP
 72
     5
 11
400.6112441386464
 21
15.67819926835079
 31
0.0
100
AcDbAttribute
  2
KL.NR.
 70
     0
  0
ATTRIB
  5
2543
330
253E
100
AcDbEntity
 67
     1
  8
TEXTE
100
AcDbText
 10
270.5687277876589
 20
24.61006730338613
 30
0.0
 40
2.5
  1
.
  7
ISOCP
100
AcDbAttribute
  2
CADDAT
 70
     0
  0
ATTRIB
  5
2544
330
253E
100
AcDbEntity
 67
     1
  8
TEXTE
100
AcDbText
 10
286.1192454020743
 20
24.61006730338613
 30
0.0
 40
2.5
  1
.
  7
ISOCP
100
AcDbAttribute
  2
BEARBNAME
 70
     0
  0
ATTRIB
  5
2545
330
253E
100
AcDbEntity
 67
     1
  8
TEXTE
100
AcDbText
 10
270.5687277876589
 20
37.36006730338614
 30
0.0
 40
2.5
  1
.
  7
ISOCP
100
AcDbAttribute
  2
BEARBDAT
 70
     0
  0
ATTRIB
  5
2546
330
253E
100
AcDbEntity
 67
     1
  8
TEXTE
100
AcDbText
 10
286.1192454020743
 20
37.36006730338614
 30
0.0
 40
2.5
  1
.
  7
ISOCP
100
AcDbAttribute
  2
BEARBNAME
 70
     0
  0
ATTRIB
  5
2547
330
253E
100
AcDbEntity
 67
     1
  8
TEXTE
100
AcDbText
 10
270.5687277876589
 20
33.11006730338613
 30
0.0
 40
2.5
  1
 
  7
ISOCP
100
AcDbAttribute
  2
GEPR-DAT
 70
     0
  0
ATTRIB
  5
2548
330
253E
100
AcDbEntity
 67
     1
  8
TEXTE
100
AcDbText
 10
286.1192454020743
 20
33.11006730338613
 30
0.0
 40
2.5
  1

  7
ISOCP
100
AcDbAttribute
  2
GEPÜNAME
 70
     0
  0
ATTRIB
  5
2549
330
253E
100
AcDbEntity
 67
     1
  8
TEXTE
100
AcDbText
 10
270.5687277876589
 20
28.86006730338613
 30
0.0
 40
2.5
  1

  7
ISOCP
100
AcDbAttribute
  2
NORMBDAT
 70
     0
  0
ATTRIB
  5
254A
330
253E
100
AcDbEntity
 67
     1
  8
TEXTE
100
AcDbText
 10
286.1192454020743
 20
28.86006730338613
 30
0.0
 40
2.5
  1
 
  7
ISOCP
100
AcDbAttribute
  2
BEARBNAME
 70
     0
  0
ATTRIB
  5
254B
330
253E
100
AcDbEntity
 67
     1
  8
TEXTE
100
AcDbText
 10
293.7757967322325
 20
71.36006730338606
 30
0.0
 40
2.5
  1
.
  7
ISOCP
 72
     1
 11
294.1507967322325
 21
71.36006730338606
 31
0.0
100
AcDbAttribute
  2
MAßSTAB1
 70
     0
  0
ATTRIB
  5
254C
330
253E
100
AcDbEntity
 67
     1
  8
TEXTE
100
AcDbText
 10
293.9912323846083
 20
67.11006730338607
 30
0.0
 40
2.5
  1
 
  7
ISOCP
 72
     1
 11
294.4912323846083
 21
67.11006730338607
 31
0.0
100
AcDbAttribute
  2
MAßSTAB2
 70
     0
  0
ATTRIB
  5
254D
330
253E
100
AcDbEntity
 67
     1
  8
TEXTE
100
AcDbText
 10
293.9912323846083
 20
62.86006730338606
 30
0.0
 40
2.5
  1
 
  7
ISOCP
 72
     1
 11
294.4912323846083
 21
62.86006730338606
 31
0.0
100
AcDbAttribute
  2
MAßSTAB3
 70
     0
  0
ATTRIB
  5
254E
330
253E
100
AcDbEntity
 67
     1
  8
TEXTE
100
AcDbText
 10
270.568727787659
 20
7.61006730338613
 30
0.0
 40
2.5
  1
.
  7
ISOCP
100
AcDbAttribute
  2
URSPRUNG
 70
     0
  0
ATTRIB
  5
254F
330
253E
100
AcDbEntity
 67
     1
  8
TEXTE
100
AcDbText
 10
314.768727787659
 20
7.61006730338613
 30
0.0
 40
2.5
  1
.
  7
ISOCP
100
AcDbAttribute
  2
ERSETZTFÜR
 70
     0
  0
ATTRIB
  5
2550
330
253E
100
AcDbEntity
 67
     1
  8
TEXTE
100
AcDbText
 10
363.468727787659
 20
7.610067303386074
 30
0.0
 40
2.5
  1
.
  7
ISOCP
100
AcDbAttribute
  2
ERSTELLTFÜR
 70
     0
  0
ATTRIB
  5
2551
330
253E
100
AcDbEntity
 67
     1
  8
TEXTE
100
AcDbText
 10
214.5687277876589
 20
11.86006730338613
 30
0.0
 40
2.5
  1
 
  7
ISOCP
100
AcDbAttribute
  2
ZUST.
 70
     0
  0
ATTRIB
  5
2552
330
253E
100
AcDbEntity
 67
     1
  8
TEXTE
100
AcDbText
 10
222.7130223389667
 20
11.86006730338613
 30
0.0
 40
2.5
  1
 
  7
ISOCP
100
AcDbAttribute
  2
ÄND.
 70
     0
  0
ATTRIB
  5
2553
330
253E
100
AcDbEntity
 67
     1
  8
TEXTE
100
AcDbText
 10
235.8684483309119
 20
11.76907098052595
 30
0.0
 40
2.5
  1
 
 41
5.875
  7
ISOCP
 72
     5
 11
241.7434483309119
 21
11.76907098052595
 31
0.0
100
AcDbAttribute
  2
DAT
 70
     0
  0
ATTRIB
  5
2554
330
253E
100
AcDbEntity
 67
     1
  8
TEXTE
100
AcDbText
 10
248.4501424002896
 20
11.76907098052595
 30
0.0
 40
2.5
  1
 
  7
ISOCP
100
AcDbAttribute
  2
NAME
 70
     0
  0
ATTRIB
  5
2555
330
253E
100
AcDbEntity
 67
     1
  8
TEXTE
100
AcDbText
 10
214.5687277876589
 20
16.11006730338613
 30
0.0
 40
2.5
  1
 
  7
ISOCP
100
AcDbAttribute
  2
ZUST.
 70
     0
  0
ATTRIB
  5
2556
330
253E
100
AcDbEntity
 67
     1
  8
TEXTE
100
AcDbText
 10
222.7130223389667
 20
16.11006730338613
 30
0.0
 40
2.5
  1
 
  7
ISOCP
100
AcDbAttribute
  2
ÄND.
 70
     0
  0
ATTRIB
  5
2557
330
253E
100
AcDbEntity
 67
     1
  8
TEXTE
100
AcDbText
 10
235.8684483309119
 20
16.01907098052595
 30
0.0
 40
2.5
  1
 
 41
5.875
  7
ISOCP
 72
     5
 11
241.7434483309119
 21
16.01907098052595
 31
0.0
100
AcDbAttribute
  2
DAT
 70
     0
  0
ATTRIB
  5
2558
330
253E
100
AcDbEntity
 67
     1
  8
TEXTE
100
AcDbText
 10
248.4501424002896
 20
16.01907098052595
 30
0.0
 40
2.5
  1
 
  7
ISOCP
100
AcDbAttribute
  2
NAME
 70
     0
  0
ATTRIB
  5
2559
330
253E
100
AcDbEntity
 67
     1
  8
TEXTE
100
AcDbText
 10
214.5687277876589
 20
20.36006730338613
 30
0.0
 40
2.5
  1
 
  7
ISOCP
100
AcDbAttribute
  2
ZUST.
 70
     0
  0
ATTRIB
  5
255A
330
253E
100
AcDbEntity
 67
     1
  8
TEXTE
100
AcDbText
 10
222.7130223389667
 20
20.36006730338613
 30
0.0
 40
2.5
  1
 
  7
ISOCP
100
AcDbAttribute
  2
ÄND.
 70
     0
  0
ATTRIB
  5
255B
330
253E
100
AcDbEntity
 67
     1
  8
TEXTE
100
AcDbText
 10
235.8684483309119
 20
20.26907098052595
 30
0.0
 40
2.5
  1
 
 41
5.875
  7
ISOCP
 72
     5
 11
241.7434483309119
 21
20.26907098052595
 31
0.0
100
AcDbAttribute
  2
DAT
 70
     0
  0
ATTRIB
  5
255C
330
253E
100
AcDbEntity
 67
     1
  8
TEXTE
100
AcDbText
 10
248.4501424002896
 20
20.26907098052595
 30
0.0
 40
2.5
  1
 
  7
ISOCP
100
AcDbAttribute
  2
NAME
 70
     0
  0
ATTRIB
  5
255D
330
253E
100
AcDbEntity
 67
     1
  8
TEXTE
100
AcDbText
 10
214.5687277876589
 20
24.61006730338613
 30
0.0
 40
2.5
  1
 
  7
ISOCP
100
AcDbAttribute
  2
ZUST.
 70
     0
  0
ATTRIB
  5
255E
330
253E
100
AcDbEntity
 67
     1
  8
TEXTE
100
AcDbText
 10
222.7130223389667
 20
24.61006730338613
 30
0.0
 40
2.5
  1
 
  7
ISOCP
100
AcDbAttribute
  2
ÄND.
 70
     0
  0
ATTRIB
  5
255F
330
253E
100
AcDbEntity
 67
     1
  8
TEXTE
100
AcDbText
 10
235.8684483309119
 20
24.51907098052596
 30
0.0
 40
2.5
  1
 
 41
5.875
  7
ISOCP
 72
     5
 11
241.7434483309119
 21
24.51907098052596
 31
0.0
100
AcDbAttribute
  2
DAT
 70
     0
  0
ATTRIB
  5
2560
330
253E
100
AcDbEntity
 67
     1
  8
TEXTE
100
AcDbText
 10
248.4501424002896
 20
24.51907098052596
 30
0.0
 40
2.5
  1

  7
ISOCP
100
AcDbAttribute
  2
NAME
 70
     0
  0
ATTRIB
  5
2561
330
253E
100
AcDbEntity
 67
     1
  8
TEXTE
100
AcDbText
 10
214.5687277876589
 20
28.86006730338613
 30
0.0
 40
2.5
  1

  7
ISOCP
100
AcDbAttribute
  2
ZUST.
 70
     0
  0
ATTRIB
  5
2562
330
253E
100
AcDbEntity
 67
     1
  8
TEXTE
100
AcDbText
 10
222.7130223389667
 20
28.86006730338613
 30
0.0
 40
2.5
  1

  7
ISOCP
100
AcDbAttribute
  2
ÄND.
 70
     0
  0
ATTRIB
  5
2563
330
253E
100
AcDbEntity
 67
     1
  8
TEXTE
100
AcDbText
 10
235.8684483309119
 20
28.76907098052596
 30
0.0
 40
2.5
  1

  7
ISOCP
 72
     5
 11
241.7434483309119
 21
28.76907098052596
 31
0.0
100
AcDbAttribute
  2
DAT
 70
     0
  0
ATTRIB
  5
2564
330
253E
100
AcDbEntity
 67
     1
  8
TEXTE
100
AcDbText
 10
248.4501424002896
 20
28.76907098052596
 30
0.0
 40
2.5
  1

  7
ISOCP
100
AcDbAttribute
  2
NAME
 70
     0
  0
ATTRIB
  5
2565
330
253E
100
AcDbEntity
 67
     1
  8
TEXTE
100
AcDbText
 10
214.5687277876589
 20
33.11006730338613
 30
0.0
 40
2.5
  1

  7
ISOCP
100
AcDbAttribute
  2
ZUST.
 70
     0
  0
ATTRIB
  5
2566
330
253E
100
AcDbEntity
 67
     1
  8
TEXTE
100
AcDbText
 10
222.7130223389667
 20
33.11006730338613
 30
0.0
 40
2.5
  1

  7
ISOCP
100
AcDbAttribute
  2
ÄND.
 70
     0
  0
ATTRIB
  5
2567
330
253E
100
AcDbEntity
 67
     1
  8
TEXTE
100
AcDbText
 10
235.8684483309119
 20
33.01907098052595
 30
0.0
 40
2.5
  1

  7
ISOCP
 72
     5
 11
241.7434483309119
 21
33.01907098052595
 31
0.0
100
AcDbAttribute
  2
DAT
 70
     0
  0
ATTRIB
  5
2568
330
253E
100
AcDbEntity
 67
     1
  8
TEXTE
100
AcDbText
 10
248.4501424002896
 20
33.01907098052595
 30
0.0
 40
2.5
  1

  7
ISOCP
100
AcDbAttribute
  2
NAME
 70
     0
  0
ATTRIB
  5
2569
330
253E
100
AcDbEntity
 67
     1
  8
TEXTE
100
AcDbText
 10
214.5687277876589
 20
37.36006730338614
 30
0.0
 40
2.5
  1

  7
ISOCP
100
AcDbAttribute
  2
ZUST.
 70
     0
  0
ATTRIB
  5
256A
330
253E
100
AcDbEntity
 67
     1
  8
TEXTE
100
AcDbText
 10
222.7130223389667
 20
37.36006730338614
 30
0.0
 40
2.5
  1

  7
ISOCP
100
AcDbAttribute
  2
ÄND.
 70
     0
  0
ATTRIB
  5
256B
330
253E
100
AcDbEntity
 67
     1
  8
TEXTE
100
AcDbText
 10
235.8684483309119
 20
37.26907098052596
 30
0.0
 40
2.5
  1

  7
ISOCP
 72
     5
 11
241.7434483309119
 21
37.26907098052596
 31
0.0
100
AcDbAttribute
  2
DAT
 70
     0
  0
ATTRIB
  5
256C
330
253E
100
AcDbEntity
 67
     1
  8
TEXTE
100
AcDbText
 10
248.4501424002896
 20
37.26907098052596
 30
0.0
 40
2.5
  1

  7
ISOCP
100
AcDbAttribute
  2
NAME
 70
     0
  0
ATTRIB
  5
256D
330
253E
100
AcDbEntity
 67
     1
  8
TEXTE
100
AcDbText
 10
214.5687277876589
 20
41.61006730338614
 30
0.0
 40
2.5
  1

  7
ISOCP
100
AcDbAttribute
  2
ZUST.
 70
     0
  0
ATTRIB
  5
256E
330
253E
100
AcDbEntity
 67
     1
  8
TEXTE
100
AcDbText
 10
222.7130223389667
 20
41.61006730338614
 30
0.0
 40
2.5
  1

  7
ISOCP
100
AcDbAttribute
  2
ÄND.
 70
     0
  0
ATTRIB
  5
256F
330
253E
100
AcDbEntity
 67
     1
  8
TEXTE
100
AcDbText
 10
235.868448330912
 20
41.51907098052595
 30
0.0
 40
2.5
  1

  7
ISOCP
 72
     5
 11
241.743448330912
 21
41.51907098052595
 31
0.0
100
AcDbAttribute
  2
DAT
 70
     0
  0
ATTRIB
  5
2570
330
253E
100
AcDbEntity
 67
     1
  8
TEXTE
100
AcDbText
 10
248.4501424002896
 20
41.51907098052595
 30
0.0
 40
2.5
  1

  7
ISOCP
100
AcDbAttribute
  2
NAME
 70
     0
  0
ATTRIB
  5
2571
330
253E
100
AcDbEntity
 67
     1
  8
TEXTE
100
AcDbText
 10
214.5687277876589
 20
45.86006730338612
 30
0.0
 40
2.5
  1

  7
ISOCP
100
AcDbAttribute
  2
ZUST.
 70
     0
  0
ATTRIB
  5
2572
330
253E
100
AcDbEntity
 67
     1
  8
TEXTE
100
AcDbText
 10
222.7130223389667
 20
45.86006730338612
 30
0.0
 40
2.5
  1

  7
ISOCP
100
AcDbAttribute
  2
ÄND.
 70
     0
  0
ATTRIB
  5
2573
330
253E
100
AcDbEntity
 67
     1
  8
TEXTE
100
AcDbText
 10
235.868448330912
 20
45.76907098052595
 30
0.0
 40
2.5
  1

  7
ISOCP
 72
     5
 11
241.743448330912
 21
45.76907098052595
 31
0.0
100
AcDbAttribute
  2
DAT
 70
     0
  0
ATTRIB
  5
2574
330
253E
100
AcDbEntity
 67
     1
  8
TEXTE
100
AcDbText
 10
248.4501424002896
 20
45.76907098052595
 30
0.0
 40
2.5
  1

  7
ISOCP
100
AcDbAttribute
  2
NAME
 70
     0
  0
ATTRIB
  5
2575
330
253E
100
AcDbEntity
 67
     1
  8
TEXTE
100
AcDbText
 10
214.5687277876589
 20
50.11006730338614
 30
0.0
 40
2.5
  1

  7
ISOCP
100
AcDbAttribute
  2
ZUST.
 70
     0
  0
ATTRIB
  5
2576
330
253E
100
AcDbEntity
 67
     1
  8
TEXTE
100
AcDbText
 10
222.7130223389667
 20
50.11006730338614
 30
0.0
 40
2.5
  1

  7
ISOCP
100
AcDbAttribute
  2
ÄND.
 70
     0
  0
ATTRIB
  5
2577
330
253E
100
AcDbEntity
 67
     1
  8
TEXTE
100
AcDbText
 10
235.868448330912
 20
50.01907098052595
 30
0.0
 40
2.5
  1

  7
ISOCP
 72
     5
 11
241.743448330912
 21
50.01907098052595
 31
0.0
100
AcDbAttribute
  2
DAT
 70
     0
  0
ATTRIB
  5
2578
330
253E
100
AcDbEntity
 67
     1
  8
TEXTE
100
AcDbText
 10
248.4501424002896
 20
50.01907098052595
 30
0.0
 40
2.5
  1

  7
ISOCP
100
AcDbAttribute
  2
NAME
 70
     0
  0
ATTRIB
  5
2579
330
253E
100
AcDbEntity
 67
     1
  8
TEXTE
100
AcDbText
 10
214.5687277876589
 20
54.36006730338614
 30
0.0
 40
2.5
  1

  7
ISOCP
100
AcDbAttribute
  2
ZUST.
 70
     0
  0
ATTRIB
  5
257A
330
253E
100
AcDbEntity
 67
     1
  8
TEXTE
100
AcDbText
 10
222.7130223389667
 20
54.36006730338614
 30
0.0
 40
2.5
  1

  7
ISOCP
100
AcDbAttribute
  2
ÄND.
 70
     0
  0
ATTRIB
  5
257B
330
253E
100
AcDbEntity
 67
     1
  8
TEXTE
100
AcDbText
 10
235.8684483309119
 20
54.26907098052595
 30
0.0
 40
2.5
  1

  7
ISOCP
 72
     5
 11
241.7434483309119
 21
54.26907098052595
 31
0.0
100
AcDbAttribute
  2
DAT
 70
     0
  0
ATTRIB
  5
257C
330
253E
100
AcDbEntity
 67
     1
  8
TEXTE
100
AcDbText
 10
248.4501424002896
 20
54.26907098052595
 30
0.0
 40
2.5
  1

  7
ISOCP
100
AcDbAttribute
  2
NAME
 70
     0
  0
ATTRIB
  5
257D
330
253E
100
AcDbEntity
 67
     1
  8
TEXTE
100
AcDbText
 10
214.5687277876589
 20
58.61006730338607
 30
0.0
 40
2.5
  1

  7
ISOCP
100
AcDbAttribute
  2
ZUST.
 70
     0
  0
ATTRIB
  5
257E
330
253E
100
AcDbEntity
 67
     1
  8
TEXTE
100
AcDbText
 10
222.7130223389667
 20
58.61006730338607
 30
0.0
 40
2.5
  1

  7
ISOCP
100
AcDbAttribute
  2
ÄND.
 70
     0
  0
ATTRIB
  5
257F
330
253E
100
AcDbEntity
 67
     1
  8
TEXTE
100
AcDbText
 10
235.8684483309119
 20
58.51907098052596
 30
0.0
 40
2.5
  1

  7
ISOCP
 72
     5
 11
241.7434483309119
 21
58.51907098052596
 31
0.0
100
AcDbAttribute
  2
DAT
 70
     0
  0
ATTRIB
  5
2580
330
253E
100
AcDbEntity
 67
     1
  8
TEXTE
100
AcDbText
 10
248.4501424002896
 20
58.51907098052596
 30
0.0
 40
2.5
  1

  7
ISOCP
100
AcDbAttribute
  2
NAME
 70
     0
  0
SEQEND
  5
2581
330
253E
100
AcDbEntity
 67
     1
  8
OBJEKT
  0
INSERT
  5
2582
330
23BE
100
AcDbEntity
 67
     1
  8
TEXTE
100
AcDbBlockReference
 66
     1
  2
Allgemeintoleranzen1
 10
259.0112441386464
 20
44.79139097205045
 30
0.0
  0
ATTRIB
  5
2583
330
2582
100
AcDbEntity
 67
     1
  8
TEXTE
100
AcDbText
 10
268.7509900065496
 20
49.69733562007803
 30
0.0
 40
2.5
  1
ISO 2768-xxx
  7
ISOCP
100
AcDbAttribute
  2
ALGEMEINT.
 70
     0
  0
SEQEND
  5
2584
330
2582
100
AcDbEntity
 67
     1
  8
TEXTE
  0
INSERT
  5
2585
330
23BE
100
AcDbEntity
 67
     1
  8
TEXTE
100
AcDbBlockReference
  2
oberfläche_nach_1302
 10
303.2112441386464
 20
61.79139097205041
 30
0.0
  0
LWPOLYLINE
  5
2760
102
{ACAD_REACTORS
330
2762
102
}
330
23BE
100
AcDbEntity
 67
     1
  8
Ansichtsfenster
100
AcDbPolyline
 90
        6
 70
     1
 43
0.0
 10
12.61124413864638
 20
281.5413909720504
 10
400.6112441386464
 20
281.5413909720504
 10
400.6112441386464
 20
76.79139097205041
 10
213.4112441386464
 20
76.79139097205041
 10
213.4112441386464
 20
4.541390972050463
 10
12.61124413864638
 20
4.541390972050407
  0
VIEWPORT
  5
2762
330
23BE
100
AcDbEntity
 67
     1
  8
Ansichtsfenster
100
AcDbViewport
 10
206.6112441386464
 20
143.0413909720504
 30
0.0
 40
388.0
 41
277.0
 68
     2
 69
     2
 12
84.31363142743597
 22
-46.92652892886918
 13
0.0
 23
0.0
 14
10.0
 24
10.0
 15
10.0
 25
10.0
 16
0.0
 26
0.0
 36
1.0
 17
0.0
 27
0.0
 37
0.0
 42
50.0
 43
0.0
 44
0.0
 45
277.0000008012112
 50
0.0
 51
0.0
 72
   100
 90
    98304
340
2760
  1

281
     0
 71
     1
 74
     0
110
0.0
120
0.0
130
0.0
111
1.0
121
0.0
131
0.0
112
0.0
122
1.0
132
0.0
 79
     0
146
0.0
170
     0
  0
INSERT
  5
290E
330
23BE
100
AcDbEntity
 67
     1
  8
OBJEKT
100
AcDbBlockReference
 66
     1
  2
Werkstückkanten
 10
303.2112441386464
 20
44.79139097205041
 30
0.0
  0
ATTRIB
  5
290F
330
290E
100
AcDbEntity
 67
     1
  8
SCHRAFUR
100
AcDbText
 10
332.4816558896873
 20
51.78603237908412
 30
0.0
 40
2.0
  1
+1
  7
ISOCP
100
AcDbAttribute
  2
+1
 70
     0
  0
ATTRIB
  5
2910
330
290E
100
AcDbEntity
 67
     1
  8
SCHRAFUR
100
AcDbText
 10
332.4816558896873
 20
55.11103861847637
 30
0.0
 40
2.0
  1
+0,3
  7
ISOCP
100
AcDbAttribute
  2
+0,3
 70
     0
  0
ATTRIB
  5
2911
330
290E
100
AcDbEntity
 67
     1
  8
SCHRAFUR
100
AcDbText
 10
312.9980083103733
 20
55.11103861847632
 30
0.0
 40
2.0
  1
-0,3
  7
ISOCP
100
AcDbAttribute
  2
-0,3
 70
     0
  0
ATTRIB
  5
2912
330
290E
100
AcDbEntity
 67
     1
  8
SCHRAFUR
100
AcDbText
 10
312.9980083103733
 20
51.78603237908411
 30
0.0
 40
2.0
  1
-1
  7
ISOCP
100
AcDbAttribute
  2
-1
 70
     0
  0
SEQEND
  5
2913
330
290E
100
AcDbEntity
 67
     1
  8
OBJEKT
  0
ENDSEC
  0
SECTION
  2
OBJECTS
  0
DICTIONARY
  5
C
330
0
100
AcDbDictionary
281
     1
  3
ACAD_COLOR
350
4CB2
  3
ACAD_GROUP
350
D
  3
ACAD_LAYOUT
350
144A
  3
ACAD_MATERIAL
350
4CB1
  3
ACAD_MLINESTYLE
350
1B
  3
ACAD_PLOTSETTINGS
350
144B
  3
ACAD_PLOTSTYLENAME
350
1448
  3
ACDBVARIABLEDICTIONARY
350
20
  0
DICTIONARY
  5
4CB2
102
{ACAD_REACTORS
330
C
102
}
330
C
100
AcDbDictionary
281
     1
  0
DICTIONARY
  5
D
102
{ACAD_REACTORS
330
C
102
}
330
C
100
AcDbDictionary
281
     1
  0
DICTIONARY
  5
144A
102
{ACAD_REACTORS
330
C
102
}
330
C
100
AcDbDictionary
281
     1
  3
Auftrag A3
350
258D
  3
Auftrag A4
350
2589
  3
Model
350
144C
  3
Projekt A4
350
23BB
  3
Projekte A3
350
23BF
  0
DICTIONARY
  5
4CB1
102
{ACAD_REACTORS
330
C
102
}
330
C
100
AcDbDictionary
281
     1
  0
DICTIONARY
  5
1B
102
{ACAD_REACTORS
330
C
102
}
330
C
100
AcDbDictionary
281
     1
  3
STANDARD
350
1C
  0
DICTIONARY
  5
144B
102
{ACAD_REACTORS
330
C
102
}
330
C
100
AcDbDictionary
281
     1
  0
ACDBDICTIONARYWDFLT
  5
1448
102
{ACAD_REACTORS
330
C
102
}
330
C
100
AcDbDictionary
281
     1
  3
Normal
350
1449
100
AcDbDictionaryWithDefault
340
1449
  0
DICTIONARY
  5
20
102
{ACAD_REACTORS
330
C
102
}
330
C
100
AcDbDictionary
281
     1
  3
DIMADEC
350
21
  3
SORTENTS
350
1184
  0
LAYOUT
  5
258D
102
{ACAD_REACTORS
330
144A
102
}
330
144A
100
AcDbPlotSettings
  1

  2
\\DOYMAIAS\TE-HPLJ500T
  4
A3
  6

 40
6.085416793823242
 41
6.12772798538208
 42
5.662078857421875
 43
5.53509521484375
 44
296.9683227539062
 45
419.9889831542968
 46
0.0
 47
0.0
 48
0.0
 49
0.0
140
0.0
141
0.0
142
1.0
143
1.0
 70
   688
 72
     1
 73
     1
 74
     5
  7
monochrome.ctb
 75
    16
147
1.0
 76
     0
 77
     2
 78
   300
148
0.0
149
0.0
100
AcDbLayout
  1
Auftrag A3
 70
     1
 71
     2
 10
-5.53509521484375
 20
-6.085416793823242
 11
414.4538879394531
 21
290.882905960083
 12
0.0
 22
0.0
 32
0.0
 14
14.61421111510401
 24
4.670531641252523
 34
0.0
 15
402.614211115104
 25
281.6705316412525
 35
0.0
146
0.0
 13
0.0
 23
0.0
 33
0.0
 16
1.0
 26
0.0
 36
0.0
 17
0.0
 27
1.0
 37
0.0
 76
     0
330
258C
331
266A
  0
LAYOUT
  5
2589
102
{ACAD_REACTORS
330
144A
102
}
330
144A
100
AcDbPlotSettings
  1

  2
\\DOYMAIAS\TE-HPLJ500T
  4
A4
  6

 40
5.873749732971191
 41
5.408092021942137
 42
5.577407836914061
 43
5.069427490234375
 44
209.9733276367186
 45
296.9683227539062
 46
0.0
 47
0.0
 48
0.0
 49
0.0
140
0.0
141
0.0
142
1.0
143
1.0
 70
   688
 72
     1
 73
     0
 74
     5
  7
monochrome.ctb
 75
    16
147
1.0
 76
     0
 77
     2
 78
   300
148
0.0
149
0.0
100
AcDbLayout
  1
Auftrag A4
 70
     1
 71
     1
 10
-5.873749732971191
 20
-5.408092021942137
 11
204.0995779037475
 21
291.5602307319641
 12
0.0
 22
0.0
 32
0.0
 14
7.517505788460597
 24
6.000216251557956
 34
0.0
 15
194.7175057884606
 25
276.000216251558
 35
0.0
146
0.0
 13
0.0
 23
0.0
 33
0.0
 16
1.0
 26
0.0
 36
0.0
 17
0.0
 27
1.0
 37
0.0
 76
     0
330
2588
331
2593
  0
LAYOUT
  5
144C
102
{ACAD_REACTORS
330
144A
102
}
330
144A
100
AcDbPlotSettings
  1

  2
\\dv-comdisp\PDFCreator
  4
User32767
  6

 40
3.174999952316283
 41
3.174999952316283
 42
3.175003051757812
 43
3.17498779296875
 44
210.0
 45
297.0
 46
30.0
 47
0.0
 48
326.023719159853
 49
722.3207731848575
140
654.9520278719719
141
881.1443432244757
142
1.0
143
1.131698932886533
 70
 11952
 72
     1
 73
     1
 74
     4
  7
monochrome.ctb
 75
     0
147
0.88362723595522
 76
     0
 77
     2
 78
   300
148
-326.023719159853
149
-722.3207731848575
100
AcDbLayout
  1
Model
 70
     1
 71
     0
 10
0.0
 20
0.0
 11
12.0
 21
9.0
 12
0.0
 22
0.0
 32
0.0
 14
0.0
 24
0.0
 34
0.0
 15
0.0
 25
0.0
 35
0.0
146
0.0
 13
0.0
 23
0.0
 33
0.0
 16
1.0
 26
0.0
 36
0.0
 17
0.0
 27
1.0
 37
0.0
 76
     0
330
18
  0
LAYOUT
  5
23BB
102
{ACAD_REACTORS
330
144A
102
}
330
144A
100
AcDbPlotSettings
  1

  2
\\DOYMAIAS\TE-HPLJ500T
  4
A4
  6

 40
5.873749732971191
 41
5.408092021942137
 42
5.577407836914061
 43
5.069427490234375
 44
209.9733276367186
 45
296.9683227539062
 46
5.0
 47
2.0
 48
1.723579020584337
 49
2.336566218124062
140
194.6156956570862
141
278.9816687777482
142
1.0
143
1.0
 70
   688
 72
     1
 73
     0
 74
     4
  7
monochrome.ctb
 75
    16
147
1.0
 76
     0
 77
     2
 78
   300
148
-1.723579020584337
149
-2.336566218124062
100
AcDbLayout
  1
Projekt A4
 70
     1
 71
     3
 10
-9.15017071238685
 20
-5.071525803818076
 11
200.8231569243319
 21
291.8967969500882
 12
0.0
 22
0.0
 32
0.0
 14
3.463887621238483
 24
4.828902423817311
 34
0.0
 15
192.625094329755
 25
277.8289024238173
 35
0.0
146
0.0
 13
0.0
 23
0.0
 33
0.0
 16
1.0
 26
0.0
 36
0.0
 17
0.0
 27
1.0
 37
0.0
 76
     0
330
23BA
331
23C5
  0
LAYOUT
  5
23BF
102
{ACAD_REACTORS
330
144A
102
}
330
144A
100
AcDbPlotSettings
  1

  2
\\DOYMAIAS\TE-HPLJ500T
  4
A3
  6

 40
6.085416793823242
 41
6.12772798538208
 42
5.662078857421875
 43
5.53509521484375
 44
296.9683227539062
 45
419.9889831542968
 46
0.0
 47
10.0
 48
7.176977667887967
 49
4.541390972050407
140
400.6112441386464
141
284.0396907129682
142
1.0
143
1.0
 70
   688
 72
     1
 73
     1
 74
     4
  7
monochrome.ctb
 75
    16
147
1.0
 76
     0
 77
     2
 78
   300
148
-7.176977667887967
149
-4.541390972050407
100
AcDbLayout
  1
Projekte A3
 70
     1
 71
     4
 10
-8.358117546955782
 20
-1.544025821772834
 11
411.6308656073409
 21
295.4242969321334
 12
0.0
 22
0.0
 32
0.0
 14
3.354302467962611
 24
4.455883883873752
 34
0.0
 15
400.6112441386464
 25
283.5413909720504
 35
0.0
146
0.0
 13
0.0
 23
0.0
 33
0.0
 16
1.0
 26
0.0
 36
0.0
 17
0.0
 27
1.0
 37
0.0
 76
     0
330
23BE
331
24D9
  0
MLINESTYLE
  5
1C
102
{ACAD_REACTORS
330
1B
102
}
330
1B
100
AcDbMlineStyle
  2
STANDARD
 70
     0
  3

 62
   256
 51
90.0
 52
90.0
 71
     2
 49
0.5
 62
   256
  6
BYLAYER
 49
-0.5
 62
   256
  6
BYLAYER
  0
ACDBPLACEHOLDER
  5
1449
102
{ACAD_REACTORS
330
1448
102
}
330
1448
  0
DICTIONARYVAR
  5
21
102
{ACAD_REACTORS
330
20
102
}
330
20
100
DictionaryVariables
280
     0
  1
0
  0
DICTIONARYVAR
  5
1184
102
{ACAD_REACTORS
330
20
102
}
330
20
100
DictionaryVariables
280
     0
  1
96
  0
ENDSEC
  0
EOF
